Guitaretab - guitar tabs
Song name
# A B C D E F G H I J K L M N O P Q R S T U V W X Y Z

Motley Crue - Too Young To Fall In Love tab

Too Young To Fall In Love                    Mötley Crüe
(From the 1983 Album SHOUT AT THE DEVIL)



Gtr I (D G C F A D) 
Gtr II (D G C F A D) 


 Intro
  Solid Rock Q=100
 4/4
  Gtr I
  Wx3          H    Q   Q
|------------|--------------|
|------------|--------------|
|------------|--------------|
|------------|--------------|
|------------|--------------|
|------------|---------19\--|


  E S S E S S E S S +S  E S   E S S E S S E S S +S  E S
|---------------------------|---------------------------|
|---------------------------|---------------------------|
|---7---5-----5---4-(4)-5---|---7---5-----5---4-(4)-5---|
|---7---7-----5---5-(5)-5---|---7---7-----5---5-(5)-5---|
|-0---0---0-0---0-----------|-----0---0-0---0-----------|
|-------------------------0-|-3-----------------------0-|


  E S S E S S E S S +S  E S   S S S S S S S S  S S S S +S  S S S
|---------------------------|------------------------------------|
|---------------------------|------------------------------------|
|---7---5-----5---4-(4)-5---|------------------------------------|
|---7---7-----5---5-(5)-5-0-|-----9-----7-----10-----9-(9)-------|
|-----0---0-0---0-----------|-----7-----5------8-----7-(7)-3-2---|
|-1-------------------------|-0-0---0-0---0-0----0-0-----------3-|


  E S S E S S E S S +S  E S   E S S E S S E S S +S  E S
|---------------------------|---------------------------|
|---------------------------|---------------------------|
|---7---5-----5---4-(4)-5---|---7---5-----5---4-(4)-5---|
|---7---7-----5---5-(5)-5---|---7---7-----5---5-(5)-5---|
|-0---0---0-0---0-----------|-----0---0-0---0-----------|
|-------------------------0-|-3-----------------------0-|
|
| Gtr II
| W                           W
|---------------------------|---------------------------|
|---------------------------|---------------------------|
|-2-------------------------|---------------------------|
|-2-------------------------|-5-------------------------|
|-0-------------------------|-5-------------------------|
|---------------------------|-3-------------------------|


  E S S E S S E S S +S  E S
|----------------------------|
|----------------------------|
|---7---5-----5---4-(4)-5----|
|---7---7-----5---5-(5)-5-0--|
|-----0---0-0---0------------|
|-1--------------------------|
|
| W
|----------------------------|
|----------------------------|
|----------------------------|
|-3--------------------------|
|-3--------------------------|
|-1--------------------------|


  S S S S S S S S  S S S S +S  S S S   S S S S S S S S  S S S S +S  S S S
|------------------------------------|------------------------------------|
|------------------------------------|------------------------------------|
|------------------------------9-9-9-|------------------------------------|
|-----9-----7-----10-----9-(9)-9-9-9-|-----9-----7-----10-----9-(9)-------|
|-----7-----5------8-----7-(7)-7-7-7-|-----7-----5------8-----7-(7)-3-2---|
|-0-0---0-0---0-0----0-0-------------|-0-0---0-0---0-0----0-0-----------3-|


   Verse 1 & 2
    E S S S S S S S S S S S S E   S S S S S S S S S S S S E E
||------------------------------|-----------------------------|
||o-----------------------------|-----------------------------|
||----5-----5-----5-----5-----7-|-5-----5-----5-----5-----5-7-|
||----7-----7-----7-----7-----5-|-3-----3-----3-----3-----3-5-|
||o-0---0-0---0-0---0-0---0-0---|---0-0---0-0---0-0---0-0-----|
||------------------------------|-----------------------------|


  S S S S S S S S S S S S E E   S S S S S S S S S S S S E E
|-----------------------------|-----------------------------|
|-----------------------------|-----------------------------|
|-5-----5-----5-----5-----5-7-|-5-----5-----5-----5-----5-5-|
|-7-----7-----7-----7-----7-5-|-3-----3-----3-----3-----3-3-|
|---0-0---0-0---0-0---0-0-----|---0-0---0-0---0-0---0-0-----|
|-----------------------------|-----------------------------|


    PM--------|   PM--------|     PM--------|   PM--------|
  E S S S S S S E S S S S S S   E S S S S S S E S S S S S S
|-----------------------------|-----------------------------|
|-----------------------------|-----------------------------|
|-4-------------5-------------|-4-------------5-------------|
|-2-2-2-2-2-2-2-3-3-3-3-3-3-3-|-2-2-2-2-2-2-2-3-3-3-3-3-3-3-|
|-----------------------------|-----------------------------|
|-----------------------------|-----------------------------|


  S S S S S S S S S S S S E E   H.       Q
|-----------------------------|--------------|
|-----------------------------|--------------|
|-4-----5-----4-----5-----4-5-|-7------------|
|-2-0---3-----2-0---3-0---2-3-|-5------------|
|-----0---0-0-----0-----0-----|--------------|
|-----------------------------|---------19\--|


 Chorus
  $
  E S S E S S E S S +S  E S   E S S E S S E S S +S  E S
|---------------------------|---------------------------|
|---------------------------|---------------------------|
|---7---5-----5---4-(4)-5---|---7---5-----5---4-(4)-5---|
|---7---7-----5---5-(5)-5---|---7---7-----5---5-(5)-5---|
|-0---0---0-0---0-----------|-----0---0-0---0-----------|
|-------------------------0-|-3-----------------------0-|


  E S S E S S E S S +S  E S
|----------------------------|
|----------------------------|
|---7---5-----5---4-(4)-5----|
|---7---7-----5---5-(5)-5-0--|
|-----0---0-0---0------------|
|-1--------------------------|


  S S S S S S S S  S S S S +S  S S S
|------------------------------------|
|------------------------------------|
|------------------------------------|
|-----9-----7-----10-----9-(9)-------|
|-----7-----5------8-----7-(7)-3-2---|
|-0-0---0-0---0-0----0-0-----------3-|


  E S S E S S E S S +S  E S   E S S E S S E S S +S  E S
|---------------------------|-----------------------------|
|---------------------------|-----------------------------|
|---7---5-----5---4-(4)-5---|---7---5-----5---4-(4)-5-----|
|---7---7-----5---5-(5)-5---|---7---7-----5---5-(5)-5-----|
|-0---0---0-0---0-----------|-----0---0-0---0-------------|
|-------------------------0-|-3-----------------------0---|


                             1.
                   To Coda
  E S S E S S E S S +S  E S   S S S S S S S S  S S S S +S  S S S
|---------------------------|------------------------------------|
|---------------------------|------------------------------------|
|---7---5-----5---4-(4)-5---|------------------------------9-9-9-|
|---7---7-----5---5-(5)-5-0-|-----9-----7-----10-----9-(9)-9-9-9-|
|-----0---0-0---0-----------|-----7-----5------8-----7-(7)-7-7-7-|
|-1-------------------------|-0-0---0-0---0-0----0-0-------------|


  S S S S S S S S  S S S S +S  S S S
|--------------------------------------||
|-------------------------------------o||
|--------------------------------------||
|-----9-----7-----10-----9-(9)---------||
|-----7-----5------8-----7-(7)-3-2----o||
|-0-0---0-0---0-0----0-0-----------3---||


 Solo
  2.
 4/4
  E     S   S   E S   S   E   S S E    E
|------------------------------------------|
|------------------------------------------|
|---------------------------------9--------|
|-9-----9---9---9-9---9---9---9-9-7---10---|
|-7-----7---7---7-7---7---7---7-7------8---|
|------------------------------------------|
|
| Gtr II
| |-3-| |--3--|   |--3--|
| S S S S S   S E S S   S S S S S S S  S S
|-7-7-7-7-7---7-7-7-7---7-5-7-4-5---4------|
|---------------------------------6----5-6-|
|------------------------------------------|
|------------------------------------------|
|------------------------------------------|
|------------------------------------------|


  E       S   S E       S   S   E     S S   E    E
|---------------------------------------------------|
|---------------------------------------------------|
|---------------------------------------------------|
|-9-------9---9-9-------9---9---9-----9-9---7---10--|
|-7-------7---7-7-------7---7---7-----7-7---5----8--|
|---------------------------------------------------|
|
|                                           ~~~
| T T T T T T S T T T T T T T T S E     S   Q
|---------------------------------------------------|
|-5h6p5---5h6---5h6p5---5h6p5---5-------------------|
|-------7-----7-------7-------7---7b9---7b9-7b9-----|
|---------------------------------------------------|
|---------------------------------------------------|
|---------------------------------------------------|

[ Tab from: http://www.guitaretab.com/m/motley-crue/34817.html ]
  E     S   S   E     S   S   E     S   S   E      E
|--------------------------------------------------------|
|--------------------------------------------------------|
|-------------------------------------------9------------|
|-9-----9---9---9-----9---9---9-----9---9---7-----10-----|
|-7-----7---7---7-----7---7---7-----7---7----------8-----|
|--------------------------------------------------------|
|
| |-3-| |--3--| |-3-| |--3--| |-3-| |--3--| |-3-|  |-3-|
| S S S S S   S S S S S S   S S S S S S   S S S S  S S S
|--------------------------------------------------------|
|--------------------------------------------------------|
|-4-5-7-4-5---7-4-5-7-4-5---7-4-5-7-4-5---7-4-5-7--4-5-7-|
|--------------------------------------------------------|
|--------------------------------------------------------|
|--------------------------------------------------------|


  E   S   S E   S   S E   S   S E    E
|----------------------------------------|
|----------------------------------------|
|----------------------------------------|
|-9---9---9-9---9---9-9---9---9-7---10---|
|-7---7---7-7---7---7-7---7---7-5----8---|
|----------------------------------------|
|
| |--3--|   |--3--|   |--3--|   |--3---|
| E E   E   E E   E   E E   E   E E    E
|---------------------5------------------|
|-----------6-5---------6---5-----6----5-|
|-4-5---7---------7-------------7--------|
|----------------------------------------|
|----------------------------------------|
|----------------------------------------|


  E     S   S   E     S   S   E     S   S   E      E
|--------------------------------------------------------|
|--------------------------------------------------------|
|--------------------------------------------------------|
|-7-----7---7---7-----7---7---7-----7---7---7-----10-----|
|-5-----5---5---5-----5---5---5-----5---5---5------8-----|
|--------------------------------------------------------|
|
| |-3-| |--3--| |-3-| |--3--| |-3-| |--3--| |-3-|  |-3-|
| S S S S S   S S S S S S   S S S S S S   S S S S  S S S
|-5-7-8-5-7---8-5-7-8-5-7---8-5-7-8-5-7---8-5-7-8--5-7-8-|
|--------------------------------------------------------|
|--------------------------------------------------------|
|--------------------------------------------------------|
|--------------------------------------------------------|
|--------------------------------------------------------|


   E        S    S     E        S    S      E    S       S  E           E
|----------------------------------------------------------------------------------|
|----------------------------------------------------------------------------------|
|-----------------------------------------------------------9----------------------|
|--9--------9----9-----9--------9----9------9----9-------9--7----------10----------|
|--7--------7----7-----7--------7----7------7----7-------7--------------8----------|
|----------------------------------------------------------------------------------|
|
|  |--3--|  |----3-----|  |--3--|                   |------3------|
|  S  S  S  S  S    T  T  S  S  S  T    +S     T    E       E     E        Q
|-12-13-15-12-13---15-15-12-13-15-12---(12)---12---15b17---15b17-15b17----15b17----|
|----------------------------------------------------------------------------------|
|----------------------------------------------------------------------------------|
|----------------------------------------------------------------------------------|
|----------------------------------------------------------------------------------|
|----------------------------------------------------------------------------------|


   E     S  S  E     S  S  E     S  S  E     E
|---------------------------------------------------|
|---------------------------------------------------|
|---------------------------------------------------|
|--7-----7--7--7-----7--7--7-----7--7--7----10------|
|--5-----5--5--5-----5--5--5-----5--5--5-----8------|
|---------------------------------------------------|
|
|                                            |-3--|
|  S  S  S  S  S  S  S  S  S  S  S  S  S  S  S  S S
|----12-13----12------------------------------------|
|-15-------15----13-15-12-13----12------------------|
|----------------------------14----12-14-10-12-10-9-|
|---------------------------------------------------|
|---------------------------------------------------|
|---------------------------------------------------|


  E  S    S E  S    S S    S     S    S   S  S S S
|---------------------------------------------------|
|---------------------------------------------------|
|---------------------------------------------------|
|-9--9----9-9--9----9-9----9-----9----9---9--9-9----|
|-7--7----7-7--7----7-7----7-----7----7---7--7-7-0--|
|---------------------------------------------------|
|
|                     |---3---|
| E  T T  S E  T T  S S  S    S  T  S   T Q
|---------------------------------------------------|
|---------------------------------------------------|
|-9-10p9----9-10p9----9-10---12-12p10p==9-9\--------|
|--------12--------12-------------------------------|
|---------------------------------------------------|
|---------------------------------------------------|


   Interlude
    S S S S S S S S S S S S E E   S S S S S S S S S S S S E E
||------------------------------|------------------------------||
||o-----------------------------|-----------------------------o||
||--5-----5-----5-----5-----5-7-|-5-----5-----5-----5-----5-7--||
||--7-----7-----7-----7-----7-5-|-3-----3-----3-----3-----3-5--||
||o---0-0---0-0---0-0---0-0-----|---0-0---0-0---0-0---0-0-----o||
||------------------------------|------------------------------||


 Verse 3
  S S S S S S S S S S S S E E   S S S S S S S S S S S S E E
|-----------------------------|-----------------------------|
|-----------------------------|-----------------------------|
|-5-----5-----5-----5-----5-7-|-5-----5-----5-----5-----5-7-|
|-7-----7-----7-----7-----7-5-|-3-----3-----3-----3-----3-5-|
|---0-0---0-0---0-0---0-0-----|---0-0---0-0---0-0---0-0-----|
|-----------------------------|-----------------------------|


  S S S S S S S S S S S S E E   S S S S S S S S S S S S E E
|-----------------------------|--------------------------------|
|-----------------------------|--------------------------------|
|-5-----5-----5-----5-----5-7-|-5-----5-----5-----5-----5-5----|
|-7-----7-----7-----7-----7-5-|-3-----3-----3-----3-----3-3----|
|---0-0---0-0---0-0---0-0-----|---0-0---0-0---0-0---0-0--------|
|-----------------------------|--------------------------------|


    PM--------|   PM--------|     PM--------|   PM--------|
  E S S S S S S E S S S S S S   E S S S S S S E S S S S S S
|-----------------------------|-----------------------------|
|-----------------------------|-----------------------------|
|-4-------------5-------------|-4-------------5-------------|
|-2-2-2-2-2-2-2-3-3-3-3-3-3-3-|-2-2-2-2-2-2-2-3-3-3-3-3-3-3-|
|-----------------------------|-----------------------------|
|-----------------------------|-----------------------------|


                                D.S. al Coda
  S S S S S S S S S S S S E E   H.       Q
|-----------------------------|--------------|
|-----------------------------|--------------|
|-4-----5-----4-----5-----4-5-|-7------------|
|-2-0---3-----2-0---3-0---2-3-|-5------------|
|-----0---0-0-----0-----0-----|--------------|
|-----------------------------|---------19\--|


  &
  S S S S S S S S  S S S S +S  S S S
|------------------------------------|
|------------------------------------|
|------------------------------------|
|-----9-----7-----10-----9-(9)-------|
|-----7-----5------8-----7-(7)-3-2---|
|-0-0---0-0---0-0----0-0-----------3-|
|
| Gtr II
| W
|------------------------------------|
|------------------------------------|
|------------------------------------|
|------------------------------------|
|------------------------------------|
|------------------------------------|


    E S S E S S E S S +S  E S   E S S E S S E S S +S  E S
||----------------------------|-----------------------------|
||o---------------------------|-----------------------------|
||----7---5-----5---4-(4)-5---|---7---5-----5---4-(4)-5-----|
||----7---7-----5---5-(5)-5---|---7---7-----5---5-(5)-5-----|
||o-0---0---0-0---0-----------|-----0---0-0---0-------------|
||--------------------------0-|-3-----------------------0---|
|
|   W                           W
||----------------------------|-----------------------------|
||o---------------------------|-----------------------------|
||----------------------------|-----------------------------|
||----------------------------|-----------------------------|
||o-0-------------------------|-2---------------------------|
||----------------------------|-----------------------------|


  E S S E S S E S S +S  E S   S S S S S S S S  S S S S +S  S S S
|---------------------------|-------------------------------------||
|---------------------------|------------------------------------o||
|---7---5-----5---4-(4)-5---|-------------------------------------||
|---7---7-----5---5-(5)-5-0-|-----9-----7-----10-----9-(9)--------||
|-----0---0-0---0-----------|-----7-----5------8-----7-(7)-3-2---o||
|-1-------------------------|-0-0---0-0---0-0----0-0-----------3--||
|
| W                           W
|---------------------------|-------------------------------------||
|---------------------------|------------------------------------o||
|---------------------------|-------------------------------------||
|---------------------------|-------------------------------------||
|-3-------------------------|------------------------------------o||
|---------------------------|-0-----------------------------------||



Related for Too Young To Fall In Love tab
Advertisement will be closed in 10 seconds