Song name
# A B C D E F G H I J K L M N O P Q R S T U V W X Y Z

Motley Crue - Sex tab

Sex - Mötley crüe


Tuning: 1 step down/ D Standard/ DGCFAD

[Intro/verse]
(this is also the rhythm for the guitar solo)

D|--------------------|
A|--------------------|
F|---9/11-11-11-11\---|
C|---9/11-11-11-11\---|
G|---7/9--9--9--9-\---|
D|--------------------|


[Pre-Chorus]

D|---------------------------------------------------------------------|
A|---------------------------------------------------------------------|
F|---11-11-10-9--9-9-8-7---4--4--4--4--4-4-4-4-4-4-4-4-4-4-4-4-4-4-4---|
C|---11-11-10-9--9-9-8-7---4--4--4--4--4-4-4-4-4-4-4-4-4-4-4-4-4-4-4---|
G|---9--9--8--7--7-7-6-5---2--2--2--2--2-2-2-2-2-2-2-2-2-2-2-2-2-2-2---|
D|---------------------------------------------------------------------|


[Chorus 1]

D|-----------------------------|-------------------------------|
A|-----------------------------|-------------------------------|
F|---11--11--7--7--4--4--4--4--|--11--11--7--7--4--4-----------|
C|---11--11--7--7--4--4--4--4--|--11--11--7--7--4--4-----------|
G|---9---9---5--5--2--2--2--2--|--9---9---5--5--2--2--2-0------|
D|-----------------------------|---------------------------2---|

D|-----------------------------|-----------------------------------------|
A|-----------------------------|-----------------------------------------|
F|---11--11--7--7--4--4--4--4--|--11--11--7--7--4--4---------------------|
C|---11--11--7--7--4--4--4--4--|--11--11--7--7--4--4--4-2----------------|
G|---9---9---5--5--2--2--2--2--|--9---9---5--5--2--2-------4-2--2-0------|
D|-----------------------------|-------------------------------------2---|
                                        play the last single note riff twice

[Chorus 2]

D|----------------------------|
A|----------------------------|
F|---7--7--------9--9--9--9---|
C|---7--7--7--7--9--9--9--9---|
G|---5--5--7--7--7--7--7--7---|
D|---------5--5---------------|

That's pretty much it, since i don't know the solo

/ - slide up
\ - slide down
Tap to rate this tab
# A B C D E F G H I J K L M N O P Q R S T U V W X Y Z