Song name
# A B C D E F G H I J K L M N O P Q R S T U V W X Y Z

Motley Crue - Public Enemy 1 tab

Public Enemy #1
As recorded by Motley Crue
Tuning:D G C F A D

Intro
    E5
||---------------------||
||o-------------------o||
||---9--9--9--9-9-9----||
||---9--9--9--9-9-9----||
||o--7--7--7--7-7-7---o||
||---------------------||

Lead Break
 (E5)
|-5--4---5-4-5-4---0---5--4h5p4--5-4-5-4---0---|
|----------------------------------------------|
|----------------------------------------------|
|----------------------------------------------|
|----------------------------------------------|
|----------------------------------------------|

 (B5)
|----------------------------------------------|
|--5--4---5-4-5-4---0---5--4h5p4--5-4-5-4---0--|
|----------------------------------------------|
|----------------------------------------------|
|----------------------------------------------|
|----------------------------------------------|


Verse
 E5           Pm....|            Pm.....|
||---------------------------------------|
||o--------------------------------------|
||--9---------9-9-9-9--9---------9-9-9-9-|
||--9---------9-9-9-9--9---------9-9-9-9-|
||o-7---------7-7-7-7--7---------7-7-7-7-|
||---------------------------------------|

 B5
|------------------------------||
|-----------------------------o||
|------------------------------||
|-9--9----------9--9-----------||
|-9--9----------9--9----------o||
|-7--7----------7--7-----------||

  A5     E5    A5     E5
|------------------------------|
|------------------------------|
|-2---2--9---9--2---2--9---9---|
|-2---2--9---9--2---2--9---9---|
|-0---0--7---7--0---0--7---7---|
|------------------------------|repeat

 B5
Pm...............|
|-----------------|
|-----------------|
|-4-4-4-4-4-4-4-4-|
|-4-4-4-4-4-4-4-4-|
|-2-2-2-2-2-2-2-2-|
|-----------------|repeat this chord...

Chorus
  E5      A5
|-------------------|
|-------------------|
|-9-------2---------|
|-9-------2---------|
|-7-------0---------|
|-------------------|these are the chords

I think it's the bass,
but Mick might do it too:
|----------------------|
|----------------------|
|----------------------|
|----------------------|
|-7---5--4-------------|
|------------5---3--2--|

Legend
-----------
 h  - hammeron
 p  - pulloff
 Pm - palm mute
 |  - bar
||  - double bar
||o - repeat start
o|| - repeat end
*|  - double bar (ending)

I might get the solo later.
Tap to rate this tab
# A B C D E F G H I J K L M N O P Q R S T U V W X Y Z