Song name
# A B C D E F G H I J K L M N O P Q R S T U V W X Y Z

Motorhead - Go To Hell tab

Motörhead-Go To Hell
for the iron fist album
by guillermo luppi (lordaborto@mixmail.com)
		       
intro and riff
|---------------------------------------------------------------|
|----------------------------------------------------not-sure---|
|-----------------------------------------------11----12--------|
|----------------5-------------5----------------11----12--------|
|--5h7-------------7-------------7------------9-9-----10-10-9---|
|------0-0-0-0-0-----0-0-0-0-0-----0-0-0-0-0--------------------|
       

"You can go to hell"
CHORUS
|----------------------------------------------------------------------|
|----------------------------------------------------------------------|
|----------------------------------------------------------------------|
|--10----------10-9--8--7-----------10----------10-9--8--7-----5-------|
|--10----------10-9--8--7-----------10----------10-9--8--7-----5-------|
|--8-----------8--7--6--5-----------8-----------8--7--6--5-----3-------|

I'm almost sure of this part
BRIDGE
|--------------------------|
|--------------------------|
|--------------------------|
|-----5---7-5---------3-5--|
|-5-7---7-----7-5-5-7------|
|--------------------------|LYRICS:


Ya told me that ya wanted it
I knew it wasn't true
Turned out to be the facts babe
You know what you can do

CHORUS: You can go to hell, you can go to hell
        Goodbye for you

Wrapped around your little finger
Under you thumb too
You know that I'm a singer
I'm singin' just for you

CHORUS

BRIDGE

GUITAR SOLO

I guess I betta get movin'
Lotta things I gotta do
I realize it was a waste of time
Talkin' sense to you

CHORUS

Hope ya got my little message
I hope you hear me
I thought ya might've been the answer
Obviously crazy

anything to say write to the mail above :)
Tap to rate this tab
 
# A B C D E F G H I J K L M N O P Q R S T U V W X Y Z