Song name
# A B C D E F G H I J K L M N O P Q R S T U V W X Y Z

Motorhead - Metropolis tab

Help us improve GuitareTab! Take a short survey!
Tab by David Ross
Motorhead - Metropolis


Intro

E   -------------------------------------------------------------|
B   -------------------------------------------------------------|
G   ---6-88-99-11 11-99-88-99-11 11-99-88-99-11 11-99-88-66-44---|
D   -------------------------------------------------------------|
A   -------------------------------------------------------------|
E   -------------------------------------------------------------|


Main Riff

E   -------------------------------------------------------------|
B   -------------------------------------------------------------|
G   ---55-10-12--------------------------------------------------|
D   ---55-10-12--------------------------------------------------|  X 12
A   ---33-8--10--------------------------------------------------|
E   -------------------------------------------------------------|


Chorus

E   -------------------------------------------------------------|
B   -------------------------------------------------------------|
G   -------------------------------------------------------------|
D   -------------------------------------------------------------|
A   ---6-6-6-6-6-9-11-13-14-13-11-9-9----------------------------|
E   ---6-6-6-6-6-9-11-13-14-13-11-9-9----------------------------|

During Solo

E   -------------------------------------------------------------|
B   -------------------------------------------------------------|
G   -------------------------------------------------------------|
D   -------------------------------------------------------------| X 9
A   ---7-8-9-9---------------------------------------------------|
E   ---7-8-9-9---------------------------------------------------|
Related for Metropolis tab