Song name
# A B C D E F G H I J K L M N O P Q R S T U V W X Y Z

Motorhead - King Of Kings tab

Help us improve GuitareTab! Take a short survey!
Band Name: Motorhead
Song Name: King of Kings
Tabed by: JM
Tuning: standard - EADGBe

ive been searching for a while for a good tab of this song. but the ones that ive seen
wrong, and im wondering if people even listen to the song as they tab it out. but what do
know im just a noob. this is only my 3rd official tab. i think the majority of it sounds 
but there are a few F ups in this tab.


e|------------------------------------------------------------------|
B|------------------------------------------------------------------|
G|------------------------------------------------------------------|
D|------------------------------------------------------------------|
A|-12/2-2~~---------------22x--22x--22x--22x------22x--22x----------|
E|-12/0-0~~----------12/0-00x--00x--00x--00x-3303-00x--00x----------|
    *-*               *-*
   pick scrape as you slide


e|-----------------------------------------------|--------------------------|
B|-----------------------------------------------|--------------------------|
G|------5~~------7~~----------------5~~-----7~~--|--------------------------|
D|------5~~------7~~----------------5~~-----7~~--|--------------------------|
A|------3~~------5~~----------------3~~-----5~~--|-5-2--8-7--5--5-2--8-7----|
E|-12//--------------30-65-3-30-65---------------|-3-0--6-5--3--3-0--6-5----|
    *               |   ALSO TRY  |-----------------------------------------|>>>


e|---------------------------------------------------------------|
B|---------------------------------------------------------------|
G|---------------------------------------------------------------|  x2
D|---------------5x---5x-5x---5x---------------------------------|
A|---------------5x---5x-5x---5x---------------------------------|
E|-0000000033333-3x-3-3x-3x-3-3x-00000000/555555555555/3---------|
   .............    .       .    ........ ............ +P.H.
^
i dont think this section is totally correct. it sounds somewhat ok. but its not perfect.


e|------------------------------------------------|
B|------------------------------------------------|
G|------------------------------------------------|
D|------------------------------------------------|
A|-22-4/5---------5-7--22-4/5---------5-7---------|
E|-00-2/3---3-3-3-3-5--00-2/3---3-3-3-3-5---------|
            + + +               + + +


e|--------------------------------------|
B|--------------------------------------|
G|------5~~------7~~--------------------|   x3
D|------5~~------7~~--------------------|
A|------3~~------5~~--------------------|
E|-------------------30-65-3-30-65------|
                    (dont play on 3rd repeat)

e|-----------------------------------------------------------------|
B|-----------------------------------------------------------------|
G|-----------------------------------------------------------------|  x2
D|---------------5x-----5x-----5x----------------------------------|
A|---------------5x-----5x-----5x----------------------------------|
E|-0000000033333-3x-3-3-3x-3-3-3x--00000000/555555555555/3---------|
   .............    . .    . .     ........ ............ +P.H.
^
this ones a little messed up also but you should be able to recognize my mistakes and
them i was just to lazy to change it.


e|------------------------------------------------|
B|------------------------------------------------|
G|------------------------------------------------|
D|------------------------------------------------|
A|-22-4/5---------5-7--22-4/5---------5-7---------|
E|-00-2/3---3-3-3-3-5--00-2/3---3-3-3-3-5---------|
            + + +               + + +

e|--------------------------------------|
B|--------------------------------------|
G|------5~~------7~~--------------------|   x3
D|------5~~------7~~--------------------|
A|------3~~------5~~--------------------|
E|-------------------30-65-3-30-65------|
                    (play twice on 2nd repeat)


SOLO - i havent figured out the solo yet. im still just a beginer going on 7 months now. sorry


e|---------------------------------------|
B|---------------------------------------|
G|-----------------------5~~-----7~~-----|   x2
D|-----------------------5~~-----7~~-----|
A|-5-2--8-7-5--5-2--8-7--3~~-----5~~-----|
E|-3-0--6-5-3--3-0--6-5------------------|


and there it is. its not 100% correct but its pretty close. like i said earlier you
be able to spot the F ups.

if you know the solo please fill me in, so i can learn it and add it to the tab.


| /  slide
| *  pick scrape
| ~  let note ring
| +  harmonic
| x  Mute note
============================================================================
Related for King Of Kings tab