Song name
# A B C D E F G H I J K L M N O P Q R S T U V W X Y Z

Motorhead - Be My Baby tab

intro/verse tune your guitar to drop D
----------------------------------------------|
----------------------------------------------|
----------------------------------------------|
-3-2-1-0-1-0-0-1-0-0-1--3-2-1-0-1-0-0-1-0-0-1-|
-3-2-1-0-1-0-0-1-0-0-1--3-2-1-0-1-0-0-1-0-0-1-|
-3-2-1-0-1-0-0-1-0-0-1--3-2-1-0-1-0-0-1-0-0-1-|

pre-chorus
-----------|
-----------|
-----------|
---0-------|
---0-2-3-5-|
-0--0-0-0--|
not too sure about that

chorus
--------------------|
--------------------|
---------/5--5-5-55-|
---------/5--5-5-55-|
-3-5-3-5-/3--3-3-33-|
-3-3-3-3------------|
the last time play this
-------------------|
-------------------|
-------------------|
-------------------|
-3-5-3-5-3-3-5-3-5-|
-3-3-3-3-3-3-3-3-3-|
thats about it
Tap to rate this tab
# A B C D E F G H I J K L M N O P Q R S T U V W X Y Z