Song name
# A B C D E F G H I J K L M N O P Q R S T U V W X Y Z

Motorhead - Jumpin Jack Flash tab

-------------------------------------------------------------------------------
			     Jumpin' Jack Flash - Motorhead
-------------------------------------------------------------------------------
Tabbed by: Vegard
Email:

Tuning:EADGBe

Riff 1
e|---------------------------------------------------------------------------|
B|---------------------------------------------------------------------------|
G|-4-4-----------------------4-----------------------------------------------|
D|-4-4------2------2------2--4-----------------------------------------------|
A|-2-2--2-4----2-4----2-4----2-----------------------------------------------|
E|---------------------------------------------------------------------------|


Riff 1
I was born in a cross-fire hurricane 

And I howled at my ma in the driving rain, 

D           A       E      B
But it's all right now, in fact, it's a gas! 

D           A         E  
But it's all right.  I'm Jumpin' Jack Flash, 
B                                   BBB                    BBB
It's a Gas!  Gas!  Gas! 

Riff 1

I was raised by a toothless, bearded hag, 
I was schooled with a strap right across my back,

D           A       E       B
But it's all right now, in fact, it's a gas! 

D           A        E        
But it's all right, I'm Jumpin' Jack Flash, 

BBB
It's a Gas!  Gas!  Gas! 


Riff 1
I was drowned, I was washed up and left for dead. 
I fell down to my feet and I saw they bled. 
I frowned at the crumbs of a crust of bread. 
Yeah, yeah, yeah 
I was crowned with a spike right thru my head. 

D           A       E      B
But it's all right now, in fact, it's a gas! 

D           A       E     
But it's all right, I'm Jumpin' Jack Flash, 

BBB
It's a Gas!  Gas!  Gas! 


End:

B E D A

Jumping Jack Flash, its a gas 
Jumping Jack Flash, its a gas 
Jumping Jack Flash, its a gas 
Jumping Jack Flash, its a gas 


BBB BBB 

e|------------------------|
B|------------------------|
G|-4-4--------------------|
D|-4-4------2------2------|
A|-2-2--2-4----2-4--------|
E|------------------------|

Tap to rate this tab
# A B C D E F G H I J K L M N O P Q R S T U V W X Y Z