Song name
# A B C D E F G H I J K L M N O P Q R S T U V W X Y Z

Motorhead - Knife tab

I'm sure this tab is not 100% accurate ("dude where is the solo ?!") but that's how i'm 
hearing it. Feel free to complete it :)


Tuning EbAbDbGbBbEb


*solo*

--------------------|
--------------------|
----------0-0-------|
---------------0-2--| X5
------0-2-----------|
--0-0---------------|


------------------------|
------------------------|
------------------------|
----------0-------------| X1
------0-2---2-0---------|
--0-0-----------3-0-----|


--------------------|
--------------------|
----------0-0-------|
---------------0-2--| X3
------0-2-----------|
--0-0---------------|


------------------------|
------------------------|
------------------------|
----------0-------------| X1
------0-2---2-0---------|
--0-0-----------3-0-----|


---------------------------------------|
------------4-5---4--------7-7--7--7---|
------------4-5---4--------7-7--7--7---| X2
-2---5-7----2-3---2--5-2---5-5--5--5---|
-0---3-5-------------3-0---------------|


--------------------|
--------------------|
----------0-0-------|
---------------0-2--| X3
------0-2-----------|
--0-0---------------|

------------------------|
------------------------|
------------------------|
----------0-------------| X1
------0-2---2-0---------|
--0-0-----------3-0-----|

--------------------|
--------------------|
----------0-0-------|
---------------0-2--| X3
------0-2-----------|
--0-0---------------|

------------------------|
------------------------|
------------------------|
----------0-------------| X1
------0-2---2-0---------|
--0-0-----------3-0-----|


---------------------------------------|
------------4-4---4--------7-7--7--7---|
------------4-5---4--------7-7--7--7---| X2
-2---5-7----2-3---2--5-2---5-5--5--5---|
-0---3-5-------------3-0---------------|


--------------------|
--------------------|
----------0-0-------|
---------------0-2--| X3
------0-2-----------|
--0-0---------------|

------------------------|
------------------------|
------------------------|
----------0-------------| X1
------0-2---2-0---------|
--0-0-----------3-0-----|

--------------------|
--------------------|
----------0-0-------|
---------------0-2--| X3
------0-2-----------|
--0-0---------------|

------------------------|
------------------------|
------------------------|
----------0-------------| X1
------0-2---2-0---------|
--0-0-----------3-0-----|



---------------------------------------------|
---------------------------------------------|
--------------------------------5-----5------|
---9-9-9-9-9--9-9-9-9-9--9-9-9--5-----5------|
---7-7-7-7-7--7-7-7-7-7--7-7-7--3-----3------|
---0-0-0-0-0--0-0-0-0-0--0-0-0---------------|
   m m m m    m m m m    m m


--------------------------------|
--------------------------------|
--------------------------------|
---9-9-9-9-9--9-9-9-9-9--9-9-9--|
---7-7-7-7-7--7-7-7-7-7--7-7-7--|
---0-0-0-0-0--0-0-0-0-0--0-0-0--|
   m m m m    m m m m    m m


----------------|
----------------|
-7---7---7-7-7--|
-7---7---7-7-7--|
-5---5---5-5-5--|
----------------|


------------|
------------|
-4-4-4-4--4-|
-4-4-4-4-4--|
-2-2-2-2-2--|
------------|


Repeat during the solo :
--------------------|
--------------------|
----------0-0-------|
---------------0-2--|
------0-2-----------|
--0-0---------------|


------------------------|
------------------------|
------------------------|
----------0-------------|
------0-2---2-0---------|
--0-0-----------3-0-----|


after the solo :
--------------------------------------|
-----------4-5---4--------7-7--7--7---|
-----------4-5---4--------7-7--7--7---| X2
2---5-7----2-3---2--5-2---5-5--5--5---|
0---3-5-------------3-0---------------|


Repeat until the end
--------------------|
--------------------|
----------0-0-------|
---------------0-2--| X3
------0-2-----------|
--0-0---------------|

------------------------|
------------------------|
------------------------|
----------0-------------| X1
------0-2---2-0---------|
--0-0-----------3-0-----|
Tap to rate this tab
# A B C D E F G H I J K L M N O P Q R S T U V W X Y Z