Song name
# A B C D E F G H I J K L M N O P Q R S T U V W X Y Z

Movielife - Operate tab

The Movielife-Operate

tune 1/2 step down

INTRO
e----------------------------------------------------------------------------------------------|
B---------------------2----------------------2----2-----2-----2-----0-----2-----2-----5-----7--|
G----4----4----4----4------4----4----4-----4---------------------------------------------------|
D----------------------------------------------0-0---0-0---0-0---0-0---0-0---0-0---0-0---0-0---|
A-0-0--0-0--0-0--0------0-0--0-0--0-0---0------------------------------------------------------|
E----------------------------------------------------------------------------------------------|
 "the way you operate.."
 *0:00-1:02
e---------------------------------------------------------------------------------------------|
B---------------------------------------------------------------------------------------------|
G-2------7------2------7--- (strum once and let ring on second verse then pick slide at 1:01--|
D-2-X16--7-X16--2-x16--7x16-------------------------------------------------------------------|
A-0------5------0------5----------------------------------------------------------------------|
E---------------------------------------------------------------------------------------------|
 "and everything you say.."
 *0:21-0:52-1:54
e---------------------------|
B---------------------------|
G-4----7----4----7----9999~-|
D-4-x8-7-x8-4-x8-7-x4-9999~-|
A-2----5----2----5----7777~-|
E---------------------------|
 "and you say that everything I do.."
 *0:41-1:13-2:05
e-------------------------------xx-------------|
B-------------------------------xx---5---2-----| (play this over the cords)
G---------------------7777-9999-xx--2---2-2----|
D-7777-7777-7777-7777-7777-9999-xx-0---0---0---|
A-7777-7777-7777-7777-5555-7777-xx-------------|
E-5555-4444-5555-4444-----------xx-------------|
 "the way I think you'll take it.."
 *1:23-2:15-2:57-3:17-----------------------------------------|
e-------------------------------------------------------------|
B----2--2----0--0-----3--3--3--3-5b6r5--3~------2-------------|
G----------------------------------------6~-------2--1-1-4-1--|
D-0-0--0--0-0--0---0--0--0--0--0-------------0-0--------------|
A-------------------------------------------------------------|
E-------------------------------------------------------------|
 *1:44
e------------------------------|
B------------------------------|
G-------11-11-11-11-11-11------|
D-4-2-4-X-X-X-X-X-X-X-X---7----|
A-4-2-4-9-9-9-9-9-9-9-9---7-x8-|
E-2-0-2-------------------5----|
 "the stupid things I'll say under the knife.."
 *2:36
e-----------|
B-----------|
G-----------|
D-7777-9999-|
A-7777-9999-|
E-5555-7777-|
 *2:54
e------------|
B-2---5-3-2--|
G---2------2-| (the little outro riff)
D------------|
A------------|
E------------|
 *3:38
e------------|
B------------|
G------------|
D-end on--7~-
A---------7~-|
E---------5~-|
Tap to rate this tab
 
# A B C D E F G H I J K L M N O P Q R S T U V W X Y Z