Song name
# A B C D E F G H I J K L M N O P Q R S T U V W X Y Z

Mudhoney - The Money Will Roll Right In tab

Intro x1
E|--------------------------|
B|--------------------------|
G|--------------------------|
D|-5--5-5-5-4-4-3-----------|
A|-5--5-5-5-4-4-3-----------|
E|-3--3-3-3-2-2-1-----------|

Verse x12
E|--------------------------|
B|--------------------------|
G|--------------------------|
D|--------------------------|
A|--------------------------|
E|-0--0-0-0-1-2-3-----------|

Chorus x1
E|---------------------------------------|
B|---------------------------------------|
G|---------------------------------------|
D|-3-3-3-3-3-3-3-3-3-3--5-5-5-5-5-5-4-4-3|
A|-3-3-3-3-3-3-3-3-3-3--5-5-5-5-5-5-4-4-3|
E|-1-1-1-1-1-1-1-1-1-1--3-3-3-3-3-3-2-2-1|

Verse x12
E|--------------------------|
B|--------------------------|
G|--------------------------|
D|--------------------------|
A|--------------------------|
E|-0--0-0-0-1-2-3-----------|

Chorus x1
E|---------------------------------------|
B|---------------------------------------|
G|---------------------------------------|
D|-3-3-3-3-3-3-3-3-3-3--5-5-5-5-5-5-4-4-3|
A|-3-3-3-3-3-3-3-3-3-3--5-5-5-5-5-5-4-4-3|
E|-1-1-1-1-1-1-1-1-1-1--3-3-3-3-3-3-2-2-1|

Verse x4
E|--------------------------|
B|--------------------------|
G|--------------------------|
D|--------------------------|
A|--------------------------|
E|-0--0-0-0-1-2-3-----------|

Solo
Chorus x1
E|---------------------------------------|
B|---------------------------------------|
G|---------------------------------------|
D|-3-3-3-3-3-3-3-3-3-3--5-5-5-5-5-5-4-4-3|
A|-3-3-3-3-3-3-3-3-3-3--5-5-5-5-5-5-4-4-3|
E|-1-1-1-1-1-1-1-1-1-1--3-3-3-3-3-3-2-2-1|

Verse x12
E|--------------------------|
B|--------------------------|
G|--------------------------|
D|--------------------------|
A|--------------------------|
E|-0--0-0-0-1-2-3-----------|

Chorus x1
E|---------------------------------------|
B|---------------------------------------|
G|---------------------------------------|
D|-3-3-3-3-3-3-3-3-3-3--5-5-5-5-5-5-4-4-3|
A|-3-3-3-3-3-3-3-3-3-3--5-5-5-5-5-5-4-4-3|
E|-1-1-1-1-1-1-1-1-1-1--3-3-3-3-3-3-2-2-1|

Verse x4
E|--------------------------|
B|--------------------------|
G|--------------------------|
D|--------------------------|
A|--------------------------|
E|-0--0-0-0-1-2-3-----------|

Intro x1
E|--------------------------|
B|--------------------------|
G|--------------------------|
D|-5--5-5-5-4-4-3-----------|
A|-5--5-5-5-4-4-3-----------|
E|-3--3-3-3-2-2-1-----------|

Verse x2
E|--------------------------|
B|--------------------------|
G|--------------------------|
D|--------------------------|
A|--------------------------|
E|-0--0-0-0-1-2-3-----------|

Intro x1
E|--------------------------|
B|--------------------------|
G|--------------------------|
D|-5--5-5-5-4-4-3-----------|
A|-5--5-5-5-4-4-3-----------|
E|-3--3-3-3-2-2-1-----------|

Verse x2
E|--------------------------|
B|--------------------------|
G|--------------------------|
D|--------------------------|
A|--------------------------|
E|-0--0-0-0-1-2-3-----------|

Intro x1
E|--------------------------|
B|--------------------------|
G|--------------------------|
D|-5--5-5-5-4-4-3-----------|
A|-5--5-5-5-4-4-3-----------|
E|-3--3-3-3-2-2-1-----------|

play the Whole song with Distortion + Fuzz. Bigmuff Pi, Univox Superfuzz
Tap to rate this tab
# A B C D E F G H I J K L M N O P Q R S T U V W X Y Z