Song name
# A B C D E F G H I J K L M N O P Q R S T U V W X Y Z

Muffs - Big Mouth tab

Big Mouth - The Muffs

Intro/Verse
e|-----------------------|
b|-----------------------|
g|--5-----5--3--5-----3--|
d|--5--3--5--3--5--3--3--|
a|--3--3--3--1--3--3--1--|
E|-----1-----------1-----|

Chorus
e|-----------------------|
b|-----------------------|
g|-----3-----3-----5-----|
d|--3--3--3--3--3--5--3--|
a|--3--1--3--1--3--3--3--|
E|--1-----1-----1-----1--|

e|-----------|
b|-----------|
g|--3-----5--|
d|--3--3--5--|
a|--1--3--3--|
E|-----1-----|

Solo
e|-----------------------------8--10b--|
b|-------------------------------------|
g|--10--9--7---------------10----------|
d|------------10--8--7-----------------|
a|----------------------8--------------|
E|-------------------------------------|
Tap to rate this tab
# A B C D E F G H I J K L M N O P Q R S T U V W X Y Z