Muffs - I Need You tab

I Need You by The Muffs

Not much to say, it's a pretty cool song that I'm sure not too many people know... I was
set on learning this song when I first heard that opening riff, and after not being
to find any tabs for it, I made my own. Suck it, internet. By the way, the "solo" is 
weird bends and noises, and I couldn't really figure it out...

h = hammer on
p = pull off
b = Bend
r = Release
~ = Vibrato
X = stop/mute note

0:00
e|----------------------------------|
B|----------------------------------|
G|----------------------------------|
D|----------------------------------|
A|-7b8~~r7~~~~~~~~~~~~~~~~~~~~~~~~--|
E|----------------------------------|


Intro/Verse Pt. 1 riff

0:11
Guitar 1
e|-----------------------------------------------------------------|
B|-----------------------------------------------------------------|
G|-----------------------------------------------------------------|
D|-----------------------------------------------------------------|
A|-------------5-7b8r7---------------5-7b8~~~----------------------|
E|-0---0---0-7-----------0---0---0-7-------------------------------|

Repeat that three times and then play

e|-----------------------------------------------------------------|
B|-----------------------------------------------------------------|
G|-----------------------------------------------------------------|
D|-----------------------------------------------------------------|
A|-------------5-7b8r7---7~~-5~~--5--------------------------------|
E|-0---0---0-7----------------------7-5-3b4-0----------------------|

0:15
Guitar 2 (This is repeated in numerous areas of the song)
e|-----------------------------------------------------------------|
B|-----------------------------------------------------------------|
G|-7~~-7x--X-7x-7~~-7x--X-7x---------------------------------------|
D|-6~~-6x--X-6x-6~~-6x--X-6x---------------------------------------|
A|-7~~-7x--X-7x-7~~-7x--X-7x---------------------------------------|
E|-----------------------------------------------------------------|


Verse
For the verse on guitar 1, repeat the intro riff, and every fourth time play
e|-----------------------------------------------------------------|
B|-----------------------------------------------------------------|
G|-3---3-3-3-3-3--4---4-4-4-4-4------------------------------------|
D|-4---4-4-4-4-4--7---7-7-7-7-7------------------------------------|
A|-4---4-4-4-4-4--7---7-7-7-7-7------------------------------------|
E|-2---2-2-2-2-2--5---5-5-5-5-5------------------------------------|


Chorus
e|-----------------------------------------------------------------|
B|-----------------------------------------------------------------|
G|-----------------------------------------------------------------|
D|-9-9-9-9-9-9-9-9-7-7-7-7-7-7-7-7---------------------------------|
A|-9-9-9-9-9-9-9-9-7-7-7-7-7-7-7-7---------------------------------|
E|-7-7-7-7-7-7-7-7-5-5-5-5-5-5-5-5---------------------------------|


At 1:20 play this Bridge thing
e|-----------------------------------------------------------------|
B|-----------------------------------------------------------------|
G|---------------------------------------------------5h7-7b9~-9b7--|
D|-2---2---2-5-7---2---2---2-7-5---2---2---2-5-7---9~--------------|
A|-2---2---2-5-7---2---2---2-7-5---2---2---2-5-7---9~--------------|
E|-0---0---0-3-5---0---0---0-5-3---0---0---0-3-5---7~--------------|


So that's pretty much every part of the song, you can figure out the order by listening
the song.
Tap to rate this tab
 
# A B C D E F G H I J K L M N O P Q R S T U V W X Y Z