Song name
# A B C D E F G H I J K L M N O P Q R S T U V W X Y Z

Mumford And Sons - Untitled tab

Artist: Mumford And Sons
Song: Untitled (the one from the Grammy Pre-Party)

This is from the Grammy Pre-Party vid from KROQ. It's an amazing new song, and 
it's pretty easy to play! Enjoy

Open D Tuning: DADF#AD
No Capo


Intro/Verse:
|------------------------------------------|
|------------------------------------------|
|------------------------------------------|
|-2-0-2/4---5-4-4/7-7-5-2-2-2h4--4p2--2p0--|
|------------------------------------------|
|------------------------------------------|
Also pick the 6th string (low D) in between notes, but listen to the song for timing.

|----------0---------0------------0--------------0----|
|----------5---------0------------7--------------0----|
|----------5---------0------------7--------------0----|
|----------0---------0------------0--------------0----|
|----------0---------0------------0--------------0----|
|----------5---------0------------7--------------0----|
But do not ask.....I pay.....must live.....quiet rage...
Tame the  ghosts....head.........wild...........dead...
Should....ash......wind.........forget..........sins...
Well let...die.......lie..........curse.........eyes...

Filler after above chorus (strumming):
|-0--0--0--0--|
|-0--0--0--0--|
|-0--0--0--0--|
|-0--h2-0--h2-|
|-0--h2-0--h2-|
|-0--0--0--0--|

Then go back to the intro/verse pattern just strumming, and without the last 2/4, just do 2 to 0.

|----------0--------------0--0--|
|----------0--------------7--0--|
|----------0--------------7--0--|
|----------0--------------0--0--|
|----------0--------------0--0--|
|----------0--------------7--0--|
I'll walk slow, I'll walk slow

|--------0------------0-----0--|
|--------0------------5-----0--|
|--------0------------5-----0--|
|--------0------------0-----0--|
|--------0------------0-----0--|
|--------9------------5-----0--|
Take my hand, help me on my way

Then back into intro/verse pattern strumming it for the "aah aah's"

END TAB


Lyrics:

Love was kind, for a time
Now it just aches, and it makes me blind
This mirror of holes, my eyes too bright
That I can't see the others in my life

But we too young, heads too strong
To bare the weight of these lovers eyes
Cause I feel numb beneath her tongue
Beneath the curse of these lovers eyes

But do not ask the price I pay
For I must live with my quiet rage
Tame the ghosts in my head
That run wild and wish me dead
Should you shake my ash to the wind
Lord forget all of my sins
Well let me die where I lie
Beneath the curse of my lovers eyes

Cause there's no drink or drug I've tried
To rid the curse of these lovers eyes
Cause I feel numb beneath your tongue
Your strength just makes me feel less strong

But do not ask the price I pay
For I must live with my quiet rage
Tame the ghosts in my head
That run wild and wish me dead
Should you shake my ash to the wind
Lord forget all of my sins
Well let me die where I lie
Beneath the curse of my lovers eyes

But I'll walk slow, I'll walk slow
Take my hand, help me on my way
And I'll walk slow, I'll walk slow
Take my hand, help me on my way
But I'll walk slow, I'll walk slow
Take my hand, help me on my way
And I'll walk slow, I'll walk slow
Take my hand, help me on my way

Aah aah aah, aah aah aah
aah aah aah, aah aah aah aah aah

Aah aah aah, aah aah aah
aah aah aah, aah aah aah aah aah

Cause I'll walk slow, I'll walk slow
Take my hand, help me on my way


Tap to rate this tab
 
# A B C D E F G H I J K L M N O P Q R S T U V W X Y Z