Guitaretab - guitar tabs
Song name
# A B C D E F G H I J K L M N O P Q R S T U V W X Y Z

Mumford And Sons - I Will Wait chords

Highlighted       Show chord diagrams
I'll keep adding things on this tab when I know them, I don't know the parts where 
Marcus just goes crazy on his guitar and I don't know how to play the
'Raise my hands, paint my spirit gold' thing either.

I might be on to something here but I think the standard tuning for this song is Open C 
and I will keep working on that aswell.

Please put in mind before posting that it's wrong that I won't sound exactly as the song 
since they got Keyboards and a Banjo aswell.
Playing Mumford and Sons song only on a guitar is not the way to play them. Have fun.

-------------------------------------------------------

Open D Tuning: DADF#AD

x - Muted string

Look at this chart for the chords

 B  B/D  Gb or Gb  G or G  A or A  D
-x--x----0-----0---0----0--0----0--0--|
-5--5----0-----0---0----0--0----0--0--|
-x--x----0-----0---5----5--7----7--0--|
-4--4--- 4-----0---0----5--0----7--0--|
-2--0----X-----X---x----x--x----x--0--|
-X--0----4-----4---5----5--7----7--0--|

-----------------------------------------------------------

Intro/Bridge:

B B/D Gb G Gb A
[ Tab from: http://www.guitaretab.com/m/mumford-and-sons/328798.html ]
-----------------------------------------------------------

Verse: Strumming pattern, Down Up Down Down x4 for each chord

D G D A

           D
And I came home
       G
Like a stone
           D            A
And I fell heavy into your arms
              D
These days of dust
            G
Which we've known
          D               A
Will blow away with this new sun

-----------------------------------------------------------

Bridge/Interlude or whatever, same as intro

B B/D Gb G Gb A     Strumming pattern, Down Down Down Up

    B    B/D   Gb
And I'll kneel down
G    Gb  A
Wait for now
    B    B/D   Gb
And I'll kneel down
G    Gb A
Know my ground

-----------------------------------------------------------

Chorus: Single Strums Down

D Gb A

    D                               Gb A
And I will wait, I will wait for you
    D                               Gb A
And I will wait, I will wait for you
Related for I Will Wait chords
I Will Wait chords by Mumford And Sons