Song name
# A B C D E F G H I J K L M N O P Q R S T U V W X Y Z

Murderdolls - Die My Bride tab

-------------------------------------------------------------------------------
	   Die My Bride - Murderdolls
-------------------------------------------------------------------------------
Tabbed by: Sam
Email:bobyjones2004@hotmail.com

Tuning:eBGDAE
            

           [Bass-intro]
e|----------------------------------------|
B|----------------------------------------|
G|----------------------------------------|x4
D|----------------------------------------|
A|----------------------------------------|
E|-0-0-0-0-0-0-0-0-3-3-3-3-2-2-2-2--------|

[guitar - chorus]
e|---------------------------------------------------------------------------|
B|---------------------------------------------------------------------------|
G|---------------------------------------------------------------------------|
D|--2-2-2-3-2-2---2-2-2-3-2-2--2-2-2-3-2-2---2-2-2-7-5-2~--------------------|x2
A|--2-2-2-3-2-2---2-2-2-3-2-2--2-2-2-3-2-2---2-2-2-7-5-2~--------------------|
E|--0-0-0-1-0-0---0-0-0-1-0-0--0-0-0-1-0-0---0-0-0-5-3-0~--------------------|

[interlude - guitar]
e|--------------------------------------------|
B|------------------------------8~~----7~~----|
G|--------------------------------------------| x 1
D|----5~----4~----2~--------------------------|
A|----5~----4~----2~--------------------------|
E|----3~----2~----0~--------------------------|

[bass - verse 2]
e|-----------------------------------------------------------------|
B|-----------------------------------------------------------------|
G|-----------------------------------------------------------------|x2
D|-----------------------------------------------------------------|
A|-----------------------------------------------------------------|
E|-0-0-0-0-0-0-0-0-0-0-0-0-3-3-3-3-3-3-3-3-2-2-2-2-2-2-2-2-0-0-0-0-|

e|---------------------------------------------7-7-6-6-5-5-4-4-4-4--7-7-6-6-5-5-4-4-4-4----------|
B|-----------------------------------------------------------------------------------------------|
G|-----------------------------------------------------------------------------------------------|
D|-9-9-8-8-7-7-6-6-6-6--9-9-8-8-7-7-6-6-6-6------------------------------------------------------|x1
A|-9-9-8-8-7-7-6-6-6-6--9-9-8-8-7-7-6-6-6-6------------------------------------------------------|
E|-7-7-6-6-5-5-4-4-4-4--7-7-6-6-5-5-4-4-4-4------------------------------------------------------|

[guitar - chorus2]
e|---------------------------------------------------------------------------|
B|---------------------------------------------------------------------------|
G|---------------------------------------------------------------------------|
D|--2-2-2-3-2-2---2-2-2-3-2-2--2-2-2-3-2-2---2-2-2-7-5-2~--------------------|x2
A|--2-2-2-3-2-2---2-2-2-3-2-2--2-2-2-3-2-2---2-2-2-7-5-2~--------------------|
E|--0-0-0-1-0-0---0-0-0-1-0-0--0-0-0-1-0-0---0-0-0-5-3-0~--------------------|

[interlude - guitar]
e|--------------------------------------------|
B|------------------------------8~~----7~~----|
G|--------------------------------------------| x 1
D|----5~----4~----2~--------------------------|
A|----5~----4~----2~--------------------------|
E|----3~----2~----0~--------------------------|

e|-----------------------------------------------------------------|
B|-----------------------------------------------------------------|
G|-----------------------------------------------------------------|x2
D|-----------------------------------------------------------------|
A|---------------------------------------------------------2-2-----|
E|-0-0-0-0-0-0-0-0-0-0-0-0-3-3-3-3-3-3-3-3-2-2-2-2-2-2-2-2-0-0-0-0-|

e|---------------------------------------------7-7-6-6-5-5-4-4-4-4--7-7-6-6-5-5-4-4-4-4----------|
B|-----------------------------------------------------------------------------------------------|
G|-----------------------------------------------------------------------------------------------|
D|-9-9-8-8-7-7-6-6-6-6--9-9-8-8-7-7-6-6-6-6------------------------------------------------------|x1
A|-9-9-8-8-7-7-6-6-6-6--9-9-8-8-7-7-6-6-6-6------------------------------------------------------|
E|-7-7-6-6-5-5-4-4-4-4--7-7-6-6-5-5-4-4-4-4------------------------------------------------------|

[guitar - chorus3]
e|---------------------------------------------------------------------------|
B|---------------------------------------------------------------------------|x2
G|---------------------------------------------------------------------------|
D|--2-2-2-3-2-2---2-2-2-3-2-2--2-2-2-3-2-2---2-2-2-7-5-2~--------------------|
A|--2-2-2-3-2-2---2-2-2-3-2-2--2-2-2-3-2-2---2-2-2-7-5-2~--------------------|
E|--0-0-0-1-0-0---0-0-0-1-0-0--0-0-0-1-0-0---0-0-0-5-3-0~--------------------|


e|-----7-7-6-6-5-5-4-4-4-4--7-7-6-6-5-5-4-4-4-4----------|
B|-------------------------------------------------------|
G|-------------------------------------------------------|
D|-------------------------------------------------------|
A|-------------------------------------------------------|
E|-------------------------------------------------------|x2

[guitar - chorus3]
e|---------------------------------------------------------------------------|
B|---------------------------------------------------------------------------|
G|---------------------------------------------------------------------------|
D|--2-2-2-3-2-2---2-2-2-3-2-2--2-2-2-3-2-2---2-2-2-7-5-2~--------------------|
A|--2-2-2-3-2-2---2-2-2-3-2-2--2-2-2-3-2-2---2-2-2-7-5-2~--------------------|x2
E|--0-0-0-1-0-0---0-0-0-1-0-0--0-0-0-1-0-0---0-0-0-5-3-0~--------------------|

| /  slide up
| \  slide down
| h  hammer-on
| p  pull-off
| ~  vibrato
| +  harmonic
| x  Mute note
===============================================================================
Tap to rate this tab
# A B C D E F G H I J K L M N O P Q R S T U V W X Y Z