Song name
# A B C D E F G H I J K L M N O P Q R S T U V W X Y Z

Murray Gold - I Am The Doctor tab

Repeat Dm, Bb, C and Gm throughout.

Main Riff:
e|--01310-0-01310-0----------------------------------------------|
B|-3-----3-3-----3-----------------------------------------------|
G|---------------------------------------------------------------|
D|---------------------------------------------------------------|
A|---------------------------------------------------------------|
E|---------------------------------------------------------------|


e|--------01111110-----------------------------------------------|
B|--333333--------111111-333333----------------------------------|
G|-2--------------------2----------------------------------------|
D|---------------------------------------------------------------|
A|---------------------------------------------------------------|
E|---------------------------------------------------------------|


e|---------------------------------------------------------------|
B|---------------------------------------------------------------|
G|-777-7775777-7775777-7775777-7775------------------------------|
D|---------------------------------------------------------------|
A|---------------------------------------------------------------|
E|---------------------------------------------------------------|

Solo:
e|---------------------------------------------------------------|
B|---------------------------------------------------------------|
G|----23--11-2------23--11-2-------23--44-3------23--00-1--------|
D|-03----0-------03----0-------0-3----0-------03----0------------|
A|---------------------------------------------------------------|
E|---------------------------------------------------------------|

Used for my YouTube video: http://www.youtube.com/watch?v=HXgsvXN8A9Q
Tap to rate this tab
 
# A B C D E F G H I J K L M N O P Q R S T U V W X Y Z