Song name
# A B C D E F G H I J K L M N O P Q R S T U V W X Y Z

Murray Gold - I Am The Doctor tab

This is primarily for a rock cover I posted on SoundCloud a while back of 'I Am The
Doctor' that includes (almost) everything up until the flute solo in the second section of
the piece, though I guess that the riffs can be used to recreate Murray Gold's work in a 
lighter manner.

Leave corrections and comments down below and I'll be sure to look at them when I get a
chance and change what needs to be changed.

-Main theme.

e--------------------------------|
b--------------------------------|
g--------------------------------|
D-0-0-2-2-3-3-4-3-3-2-2-0-0-2----|
A--------------------------------|
E--------------------------------|

-Brass section chords (hold each one for 7 beats)

e--------------------------------|
b--------------------------------|
g-7--------3--------5-------3----|
D-7--------3--------5-------3----|
A-5--------1--------3-------1----|
E--------------------------------|

-Strings

e-----------------------------------------------------------------|
b-----------------------------------------------------------------|
g-7-7-7--7-7-7-5-7-7-7--7-7-7-5-7-7-7--7-7-7-5-7-7-7--7-7-7-5-----|
D-----------------------------------------------------------------|
A-----------------------------------------------------------------|
E-----------------------------------------------------------------|

-Strings shifted an octave higher.

 An alternative to playing it this way would be to play the same notes on the high E
string, though I guess it's up to personal preference and what you think sounds better on
your guitar.

e------------------------------------------------------------------------------------------|
b-15-15-15--15-15-15-13-15-15-15--15-15-15-13-15-15-15--15-15-15-13-15-15-15--15-15-15-13--|
g------------------------------------------------------------------------------------------|
D------------------------------------------------------------------------------------------|
A------------------------------------------------------------------------------------------|
E------------------------------------------------------------------------------------------|

-Palm muted guitar (play each 14 times, twice per crotchet)

e----------------------------------------|
b----------------------------------------|
g----------------------------------------|
D-7-----------3-----------5--------------|
A-5-----------1-----------3-----------5--|
E-------------------------------------3--|

Brass solo (not sure if this is in the actual song, wrote it into my cover and it
sounded alright). Listen to the track for timing.

e--------------------------------------------|
b--------5-6~------5h6p5---------------------|
g--7~---------------------5---7-----5--7-----|
D--------------------------------------------|
A--------------------------------------------|
E--------------------------------------------|
Tap to rate this tab
 
# A B C D E F G H I J K L M N O P Q R S T U V W X Y Z