Song name
# A B C D E F G H I J K L M N O P Q R S T U V W X Y Z

Muse - Uprising tab

Fantastic new song by Muse from the album The Resistance. This is just the intro so far, 
I'm working on the rest of the song, will update once done. Not sure on the timings but 
can work them out for yourself.

Opening Synth
      W                    H         H            W
E||--17----------------|----------------------|--------------------|
B||--------------------|--18--------10--------|--11----------------|
G||--------------------|----------------------|--------------------|
D||--------------------|----------------------|--------------------|
A||--------------------|----------------------|--------------------|
E||--------------------|----------------------|--------------------|


   S   S  H.                  H         H            H         H
--------------------------|--17------------------|----------------------|
--13p-11-10---------------|------------17--------|--14--------10--------|
--------------------------|----------------------|----------------------|
--------------------------|----------------------|----------------------|
--------------------------|----------------------|----------------------|
--------------------------|----------------------|----------------------|


   W                    S   S  H.                 Q     Q     Q     Q
--18----------------|--20p-18-17---------------|--17----------------------|
--------------------|--------------------------|--------18----15----10----|
--------------------|--------------------------|--------------------------|
--------------------|--------------------------|--------------------------|
--------------------|--------------------------|--------------------------|
--------------------|--------------------------|--------------------------|


   Q     Q     Q     Q        W                    S   S  H.
--------------17----------|--18----------------|--18p-15-17---------------|
--15----18----------15----|--------------------|--------------------------|
--------------------------|--------------------|--------------------------|
--------------------------|--------------------|--------------------------|
--------------------------|--------------------|--------------------------|
--------------------------|--------------------|--------------------------|


   Q     Q     Q     Q        Q     Q     Q     Q        W
--17----------------------|--------------17----------|--15----------------|
--------17----14----10----|--11----17----------11----|--------------------|
--------------------------|--------------------------|--------------------|
--------------------------|--------------------------|--------------------|
--------------------------|--------------------------|--------------------|
--------------------------|--------------------------|--------------------|


   S   S  H.
--15p-12-13------||
-----------------||
-----------------||
-----------------||
-----------------||
-----------------||

Guitar Bending Into Verse:

e------------------||
B----15----15------||
G----17^---17^-----||
D------------------||
A------------------||
E------------------||


Duration Legend
---------------
W - whole
H - half
Q - quarter
E - 8th
S - 16th
T - 32nd
X - 64th
. - note dotted
|-n-|  - n-tuplets


Tablature Legend
----------------
L - tied note
x - dead note
g - grace note
(n) - ghost note
> - accentuded note
NH - natural harmonic
AH - artificial harmonic
TH - tapped harmonic
SH - semi harmonic
PH - pitch harmonic
h - hammer on
p - pull off
b - bend
br - bendRelease
pb - preBend
pbr - preBendRelease
brb - bendReleaseBend
\n/ - tremolo bar dip
\n - tremolo bar dive
-/n - tremolo bar Release up
/n\ - tremolo bar inverted dip
/n - tremolo bar return
-\n - tremolo bar Release down
S - shift slide
s - legato slide
/ -  slide into from below or out of upwards
\ -  slide into from above or out of downwards
~ - vibrato
W - wide vibrato
tr - trill
TP - tremolo picking
T - tapping
S - slap
P - pop
< - fade in
^ - brush up
v - brush down
Tap to rate this tab
# A B C D E F G H I J K L M N O P Q R S T U V W X Y Z