Song name
# A B C D E F G H I J K L M N O P Q R S T U V W X Y Z

Muse - Uprising tab

------------------------------------------------------------------------------
			     UPRISING - Muse
-------------------------------------------------------------------------------
Tabbed by: David Boyd
Email: davyboyd89@hotmail.com

Tuning: Open G6 Tuning (DGDGBE)
 
Hey, I don't think any of the other tabs for the guitar on here are accurate enough,
but I think mine's correct. I'm sure the guitar is how Matt B plays it.
I tried putting all the instruments in because there's large sections
without guitar, so sorry if it seems a bit confusing. 
It's my first tab, and took me ages to put up! 
Email me if you have any Q's and leave a Comment and rate!
Enjoy!
 

INTRO Part 1
  
  Bass arr. for guitar
e|-----------------|-----------------|-----------------|-----------------|
B|-----------------|-----------------|-----------------|-----------------|
G|-----------------|-----------------|-----------------|-----------------|
D|-----------------|-----------------|-----------------|-----------------|
G|---7---7---7---7-|---7---7---7---7-|---7---7---7---7-|---7---7---7---7-|
D|-0---0---0---0---|-0---0---0---0---|-0---0---0---0---|-0---0---0---0---|

INTRO Part 2

e|-----------------|-----------------|-----------------|-----------------|
B|-----------------|-----------------|-----------------|-----------------|
G|-----------------|-----------------|-----------------|-----------------|
D|-----------------|-----------------|---5---5---5---5-|---3---3---3---3-|
G|---7---7---7---7-|---7---7---7---7-|-----------------|-----------------|
D|-0---0---0---0---|-0---0---0---0---|-5---5---5---5---|-3---3---3---3---|

Synth arr. for Guitar
e|-17--------------|-13--------------|-----------------|-----------------|
B|-----------------|-----------------|-----------------|-----------------|
G|-----------------|---------14------|-15---------17p15|-14--------------|
D|-----------------|-----------------|-----------------|-----------------|
G|-----------------|-----------------|-----------------|-----------------|
D|-----------------|-----------------|-----------------|-----------------|


e|-----------------|-----------------|-----------------|-----------------|
B|-----------------|-----------------|-----------------|-----------------|
G|-----------------|-----------------|-----------------|-----------6--6--|
D|---7---7---7---7-|---7---7---7---7-|---5---5---5---5-|---3---3---------|
G|-----------------|-----------------|-----------------|---------6---6---|
D|-7---7---7---7---|-7---7---7---7---|-5---5---5---5---|-3---3-----------|

e|-17-----12-------|-----------------|-18---------20p18|-17--------------|
B|-----------------|-14--------------|-----------------|-----------------|
G|-----------------|---------14------|-----------------|-----------------|
D|-----------------|-----------------|-----------------|-----------------|
G|-----------------|-----------------|-----------------|-----------------|
D|-----------------|-----------------|-----------------|-----------------|


e|-----------------|-----------------|-----------------|-----------------|
B|-----------------|-----------------|-----------------|-----------------|
G|-----------------|-----------------|-----------------|-----------------|
D|-----------------|-----------------|---5---5---5---5-|---3---3---6---6-|
G|---7---7---7---7-|---7---7---7---7-|-----------------|-----------------|
D|-0---0---0---0---|-0---0---0---0---|-5---5---5---5---|-3---3---6---6---|

e|-17--13----------|-----13--17------|-18---------17p15|-17--------------|
B|---------15------|-15--------------|-----------------|-----------------|
G|-------------14--|-------------14--|-----------------|-----------------|
D|-----------------|-----------------|-----------------|-----------------|
G|-----------------|-----------------|-----------------|-----------------|
D|-----------------|-----------------|-----------------|-----------------|


e|-----------------|-----------------|-----------------|-----------------|
B|-----------------|-----------------|-----------------|-----------------|
G|-----------------|-----------------|-----------------|-----------6--6--|
D|---7---7---7---7-|---7---7---7---7-|---5---5---5---5-|---3---3---------|
G|-----------------|-----------------|-----------------|---------6---6---|
D|-7---7---7---7---|-7---7---7---7---|-5---5---5---5---|-3---3-----------|

e|-17--12----------|-----12--17------|-15---------13p12|-13--------------|
B|---------14------|-14--------------|-----------------|-----------------|
G|-------------14--|-------------14--|-----------------|-----------------|
D|-----------------|-----------------|-----------------|-----------------|
G|-----------------|-----------------|-----------------|-----------------|
D|-----------------|-----------------|-----------------|-----------------|

Guitar With Distortion
e|-----------------|-----------------|-----------------|-----------------|
B|-----------------|-----------------|-----------------|----------15--15-|
G|-----------------|-----------------|-----------------|----------17b-17b|
D|-----------------|-----------------|-----------------|-----------------|
G|-----------------|-----------------|-----------------|-----------------|
D|-----------------|-----------------|-----------------|-----------------|


INTRO Part 3
e|-----------------|-----------------|-----------------|-----------------|
B|-----------------|-----------------|-----------------|-----------------|
G|-----------------|-----------------|-----------------|-----------------|
D|-----------------|-----------------|-----------------|-----------------|
G|---7---7---7---7-|---7---7---7---7-|---7---7---7---7-|---7---7---7---7-|
D|-0---0---0---0---|-0---0---0---0---|-0---0---0---0---|-0---0---0---0---|


VERSE
 
Bass continues playing 'INTRO Part 2'

Guitar x 2
Paranoia....
Another promise...
e|-----------------|-----------------|-----------------|-----------------|
B|-----------------|-----------------|-----------------|-----------------|
G|-----------------|-----------------|-----------------|-----------------|
D|-----------------|-----------------|-----------------|-----------------|
G|-----------------|-----------------|-----------------|-----------------|
D|-----------------|-----------------|-----------------|-----------------|

                                                            ...So Come on!
e|-----------------|-----------------|-----------------|-----------------|
B|-----------------|-----------------|-----------------|----------15--15-|
G|-----------------|-----------------|-----------------|----------17b-17b|
D|-----------------|-----------------|-----------------|-----------------|
G|-----------------|-----------------|-----------------|-----------------|
D|-----------------|-----------------|-----------------|-----------------|


CHORUS 1 - Repeat 'INTRO Part 2'


VERSE 2
 
Guitar enters as bass plays 'Intro Part 3'
                                     
Matt uses all Down-strums

e|-----------------|-----------------|-----------------|-----------------|
B|-----------------|-----------------|-----------------|-----------------|
G|-----------------|-----------------|-7-7-x-7-7-7-x-7-|-7-7-x-7-7-7-x-7-|
D|-----------------|-----------------|-----x-------x---|-----x-------x---|
G|-----------------|-----------------|-7-7-x-7-7-7-x-7-|-7-7-x-7-7-7-x-7-|
D|-----------------|-----------------|-----------------|-----------------|

       'Interchanging...'
e|-----------------|-----------------|-----------------|-----------------|
B|-----------------|-----------------|-----------------|-----------------|
G|-7-7-x-7-7-7-x-7-|-7-7-x-7-7-7-7-7-|-7-7-x-7-7-7-x-7-|-5-5-x-5-5-5-5-5-|
D|-----x-------x---|-----x-----------|-----x-------x---|-----x-----------|
G|-7-7-x-7-7-7-x-7-|-7-7-x-7-7-7-7-7-|-7-7-x-7-7-7-x-7-|-5-5-x-5-5-5-5-5-|
D|-----------------|-----------------|-----------------|-----------------|

e|-----------------|-----------------|-----------------|-------------------|
B|-----------------|-----------------|-----------------|-------------15-15-|
G|-6-6-x-6-6-6-x-6-|-6-6-x-6-6-6-6-6-|-7-7-x-7-7-7-x-7-|-7-7-x-7-7-7-17b17b|
D|-----x-------x---|-----x-----------|-----x-------x---|-----x-------------|
G|-6-6-x-6-6-6-x-6-|-6-6-x-6-6-6-6-6-|-7-7-x-7-7-7-x-7-|-7-7-x-7-7-7-------|
D|-----------------|-----------------|-----------------|-------------------|

e|-----------------|-----------------|-----------------|-----------------|
B|-----------------|-----------------|-----------------|-----------------|
G|-----x-7-7-7-x-7-|-7-7-x-7-7-7-7-7-|-7-7-x-7-7-7-x-7-|-5-5-x-5-5-5-5-5-|
D|-----x-------x---|-----x-----------|-----x-------x---|-----x-----------|
G|-----x-7-7-7-x-7-|-7-7-x-7-7-7-7-7-|-7-7-x-7-7-7-x-7-|-5-5-x-5-5-5-5-5-|
D|-----------------|-----------------|-----------------|-----------------|

e|-----------------|-----------------|-----------------|-------------------|
B|-----------------|-----------------|-----------------|-------------15-15-|
G|-6-6-x-6-6-6-x-6-|-6-6-x-6-6-6-6-6-|-7-7-x-7-7-7-x-7-|-7-7-x-7-7-7-17b17b|
D|-----x-------x---|-----x-----------|-----x-------x---|-----x-------------|
G|-6-6-x-6-6-6-x-6-|-6-6-x-6-6-6-6-6-|-7-7-x-7-7-7-x-7-|-7-7-x-7-7-7-------|
D|-----------------|-----------------|-----------------|-------------------|

e|-----------------|-----------------|-----------------|-----------------|
B|-----------------|-----------------|-----------------|-----------------|
G|-------7-7-7---7-|---7---7-7-7-----|-7-7---7-7-7---7-|---7---7-7-7-----|
D|-----------------|-----------------|-----------------|-----------------|
G|-------7-7-7---7-|---7---7-7-7-----|-7-7---7-7-7---7-|---7---7-7-7-----|
D|-----------------|-----------------|-----------------|-----------------|

CHORUS 2 

Again all Down-strums

e|-5-5---5-5-5----5-|-5-5---5-5-5-5-5-|-----------------|-----------------|
B|-6-6---6-6-6----6-|-6-6---6-6-6-6-6-|-8-8---8-8-8-8-8-|-6-6---6-6-6-6-6-|
G|-7-7---7-7-7----7-|-7-7---7-7-7-7-7-|-7-7---7-7-7-7-7-|-5-5---5-5-5-5-5-|
D|-7-7---7-7-7----7-|-7-7---7-7-7-7-7-|-8-8---8-8-8-8-8-|-7-7---7-7-7-7-7-|
G|------------------|-----------------|-----------------|-----------------|
D|------------------|-----------------|-----------------|-----------------|

e|------------------|-----------------|-----------------|-----------------|
B|-5-5---5-5-5----5-|-5-5---5-5-5-5-5-|-8-8---8-8-8-8-8-|-6-6---x---------|
G|-6-6---6-6-6----6-|-6-6---6-6-6-6-6-|-7-7---7-7-7-7-7-|-5-5---x-6-6-6-6-|
D|-7-7---7-7-7----7-|-7-7---7-7-7-7-7-|-8-8---8-8-8-8-8-|-7-7---x-7-7-7-7-|
G|------------------|-----------------|-----------------|-----------------|
D|------------------|-----------------|-----------------|-----------------|

e|-5-5---5-5-5----5-|-5-5---5-5-5-5-5-|-----------------|-----------------|
B|-6-6---6-6-6----6-|-6-6---6-6-6-6-6-|-8-8---8-8-8-8-8-|-6-6---x-6-6-6-6-|
G|-7-7---7-7-7----7-|-7-7---7-7-7-7-7-|-7-7---7-7-7-7-7-|-5-5---x-7-7-7-7-|
D|-7-7---7-7-7----7-|-7-7---7-7-7-7-7-|-8-8---8-8-8-8-8-|-7-7---x-6-6-6-6-|
G|------------------|-----------------|-----------------|-----------------|
D|------------------|-----------------|-----------------|-----------------|

e|------------------|-----------------|-----------------|-------------------|
B|-5-5---5-5-5----5-|-5-5---5-5-5-5-5-|-8-8---8-8-8-8-8-|-6-6---x-----15-15-|
G|-6-6---6-6-6----6-|-6-6---6-6-6-6-6-|-7-7---7-7-7-7-7-|-5-5---x-6-6-17b17b|
D|-7-7---7-7-7----7-|-7-7---7-7-7-7-7-|-8-8---8-8-8-8-8-|-7-7---x-7-7-------|
G|------------------|-----------------|-----------------|-------------------|
D|------------------|-----------------|-----------------|-------------------|


Bass plays 'INTRO Part 3' before SOLO begins

SOLO x 3

Listen to the CD if you're unsure of timing

e|---------------------|---------------------|---------------------|---------------------|
B|---------------------|---------------------|---------------------|---------------------|
G|---------------------|---------------------|---------------------|---------------------|
D|---------------------|---------------------|---------------------|---------------------|
G|---------------5h6h7-|---------------5h6h7-|---------------5h6h7-|---------------5h6h7-|
D|-0---3---5h6h7-------|-0---3---5h6h7-------|-0---3---5h6h7-------|-0---3---5h6h7-------|

e|-------------------------|----------------------------|-----------------------|
B|----10----10----10----10-|----10----10----10----------|----11\10--11\10-----10|
G|-14----13----12----10----|----------------------------|-----------------------|
D|-------------------------|-14----12----11-------------|-----8\7----8\7-------7|
G|-------------------------|-------------------14\------|-----------------------|
D|-------------------------|----------------------------|-----------------------|

--------------------|
---10----8/10---15--|
----------------17b-|
---7-----5/7--------|
--------------------|
--------------------|

After the 3rd time
e|-----------------|-------------------------------------------------|
B|-15--15--15--15--|-15-15-15---15-15-15---15-15-15---15-15-15-------|
G|-17b-17b-17b-17b-|-17b17b17b--17b17b17b--17b17b17b--17b17b17b------|
D|-----------------|-------------------------------------------------|
G|-----------------|-------------------------------------------------|
D|-----------------|-------------------------------------------------|
                     [   3   ]  [   3   ]  [   3   ]  [   3   ]


CHORUS 3 - Repeat CHORUS 2


OUTRO

Part 1
e|-----------------|-----------------|
B|-----------------|-----------------|
G|-----------------|-----------------|
D|-----------------|-----------------|
G|---7---7---7---7-|---7---7---7---7-|
D|-0---0---0---0---|-0---0---0---0---|


OUTRO Part 2 - Synth Enters

e|-----------------|-----------------|-----------------|-----------------|
B|-----------------|-----------------|-----------------|-----------------|
G|-----------------|-----------------|-----------------|-----------------|
D|-----------------|-----------------|---5---5---5---5-|---3---3---6---6-|
G|---7---7---7---7-|---7---7---7---7-|-----------------|-----------------|
D|-0---0---0---0---|-0---0---0---0---|-5---5---5---5---|-3---3---6---6---|

Synth
e|-17--13----------|-----13--17------|-18---------17p15|-17--------------|
B|---------15------|-15--------------|-----------------|-----------------|
G|-------------14--|-------------14--|-----------------|-----------------|
D|-----------------|-----------------|-----------------|-----------------|
G|-----------------|-----------------|-----------------|-----------------|
D|-----------------|-----------------|-----------------|-----------------|

e|-----------------|-----------------|-----------------|-----------------|
B|-----------------|-----------------|-----------------|-----------------|
G|-----------------|-----------------|-----------------|-----------6--6--|
D|---7---7---7---7-|---7---7---7---7-|---5---5---5---5-|---3---3---------|
G|-----------------|-----------------|-----------------|---------6---6---|
D|-7---7---7---7---|-7---7---7---7---|-5---5---5---5---|-3---3-----------|

e|-17--12----------|-----12--17------|-15---------13p12|-13--------------|
B|---------14------|-14--------------|-----------------|-----------------|
G|-------------14--|-------------14--|-----------------|-----------------|
D|-----------------|-----------------|-----------------|-----------------|
G|-----------------|-----------------|-----------------|-----------------|
D|-----------------|-----------------|-----------------|-----------------|

Guitar
e|-----------------|-----------------|-----------------|-----------------|
B|-----------------|-----------------|-----------------|----------15--15-|
G|-----------------|-----------------|-----------------|----------17b-17b|
D|-----------------|-----------------|-----------------|-----------------|
G|-----------------|-----------------|-----------------|-----------------|
D|-----------------|-----------------|-----------------|-----------------|

OUTRO Part 3

e|-----------------|-----------------|-----------------|-----------------|
B|-----------------|-----------------|-----------------|-----------------|
G|-----------------|-----------------|-----------------|-----------------|
D|-----------------|-----------------|-----------------|-----------------|
G|---7---7---7---7-|---7---7---7---7-|---7---7---7---7-|---7---7---7---7-|
D|-0---0---0---0---|-0---0---0---0---|-0---0---0---0---|-0---0---0---0---|

e|-----------------|-----------------|-----------------|-----------------|
B|-----------------|-----------------|-----------------|-----------------|
G|-----------------|-----------------|-----------------|-----------------|
D|-----------------|-----------------|-----------------|-----------------|
G|-7\--------------|-----------------|-----------------|-----------------|
D|-----------------|-----------------|-----------------|-----------------|

Enjoy!

INTRO
VERSE 1
CHORUS 1
VERSE 2
CHORUS 2
SOLO
CHORUS 3
OUTRO
Tap to rate this tab
 
# A B C D E F G H I J K L M N O P Q R S T U V W X Y Z