Song name
# A B C D E F G H I J K L M N O P Q R S T U V W X Y Z

Mushroomhead - Empty Spaces tab

Band- Mushroomhead
Song- Empty Spaces

(x2)
----------------------|
----------------------|
---9--11--12--11--9---|
---7--9---10--9---7---|
---7--9---10--9---7---|
---7--9---10--9---7---|

----------------------------------------|
----------------------------------------|
---16---14-11-14--11---14-11---9-7-11---|
---14------------------12---------------|
---14------------------12---------------|
---14------------------12---------------|

------------------------------------|
------------------------------------|
---16---14-11-14---14-11---9-7-11---|
---14--------------12---------------|
---14--------------12---------------|
---14--------------12---------------|

---------------------------------------|
---------------------------------------|
---12-11-9---11/12/11---12---14---16---|
---10-9--7---------9----10---12---14---|
---10-9--7---------9----10---12---14---|
---10-9--7---------9----10---12---14---|

------------------------------|
------------------------------|
---9---11---12---11---12-11---|
---7---9----10---9----10-9----|
---7---9----10---9----10-9----|
---7---9----10---9----10-9----|
Tap to rate this tab
# A B C D E F G H I J K L M N O P Q R S T U V W X Y Z