Guitaretab - guitar tabs
Song name
# A B C D E F G H I J K L M N O P Q R S T U V W X Y Z

Mxpx - Scooby Doo tab

-------------------------------------------------------------------------------
Scooby Doo Where Are You? - MxPx
-------------------------------------------------------------------------------

Tabbed By Funkey Munkey

Please rate etc!

Iíve just downloaded this on Kaaza and it thought Iíd tab it out as itís 
quite a cool song to play!  Itís on the new movie soundtrack as well!!

Enjoy!

Intro 1
e|------------------------------------|
B|------------------------------------|
G|--------9-9--------9-9---------9-9--|
D|-999999-9-9-999999-9-9-9999999-9-9--|
A|-999999-7-7-999999-7-7-9999999-7-7--|
E|-777777-----777777-----7777777------|

Intro 2
e|----------------------------------------|
B|----------------------------------------|
G|-----9-9-----9-9-----9-9-11-11-11-11----|
D|-9-9-9-9-9-9-9-9-9-9-9-9-11-11-11-11----|
A|-9-9-7-7-9-9-7-7-9-9-7-7-9--9--9--9-----|
E|-7-7-----7-7-----7-7--------------------|

Verse 1
e|------------------------------------|
B|------------------------------------|
G|-4444444-6666666---------4444444----|
D|-4444444-6666666-4444444-4444444----|
A|-2222222-4444444-4444444-2222222----|
E|-----------------2222222------------|
[ Tab from: http://www.guitaretab.com/m/mxpx/120830.html ]
Verse 2
e|------------------------------------------------\---------\----|
B|------------------------------------------------\---------\----|
G|-9-9-9-9-9-9-9-9-----999-----9-9-9-9-9-9-9-10-11\-11-11-11\----|
D|-9-9-9-9-9-9-9-9-999-999-999-9-9-9-9-9-9-9-10-11\-11-11-11\----|
A|-7-7-7-7-7-7-7-7-999-777-999-7-7-7-7-7-7-7-8--9-\-9--9--9-\----|
E|-----------------777-----777--------------------\---------\----|

Bridge
e|-------------X-----------X-----------X-------------|
B|-------------X-----------X-----------X-------------|
G|-444-------44X44-------44X44-------44X44-----------|
D|-444-22-44-44X44-22-44-44X44-22-44-44X44-22-4~~----|
A|-222-22-44-22X22-22-44-22X22-22-44-22X22-22-4~~----|
E|-----00-22---X---00-22---X---00-22---X---00-2~~----|

Solo
e|------------------------------------------------------------|
B|------------------------------------------------------------|
G|-8-6-4-4-6-8-------8-8-8-6-4--8-6-4-4-6-8-9-----8-8-8-6-4---|
D|-------------6-4-4--------------------------4-4-------------|
A|------------------------------------------------------------|
E|------------------------------------------------------------|

SONG LAYOUT!

Intro 1 
Intro 2
Verse 1 x2 (Palm Muted)
Verse 1 x2
Verse 2
Bridge
Solo
Verse 1
Intro 2

Enjoy
===============================================================================
Related for Scooby Doo tab