Guitaretab - guitar tabs
Song name
# A B C D E F G H I J K L M N O P Q R S T U V W X Y Z

Mxpx - Doing Time tab

x =Palm mute
~ =let Ring
Intro

e--------------------------------------------------------------------------|
B--------------------------------------------------------------------------|
G-10-10----13-13-----10-10----11-11-----8-8-8-8-8----10-10-10-10-10--------|     (2x)
D--x--x------x--x-------x--x------x--x------x-x-x-x-x-----x--x---x--x---x--|
A--8--8-----11-11------8--8------9--9------6-6-6-6-6-----8--8---8--8-- 8---|
E--------------------------------------------------------------------------|

Verse 1
e--------------------------------------------------|
B--------------------------------------------------|
G---------------6---------------4---------- 6------|
D--4------------6---(4x)------4---(4x)---6---(4x)--|
A--4-(4x)------4--------------2-----------4--------|
E--2-----------------------------------------------|
[ Tab from: http://www.guitaretab.com/m/mxpx/122250.html ]
Verse 2
e-------------------------------------------------------|
B-------------------------------------------------------|
G-----------------6-------------4xxxxx---------6-xxxxx--|
D--4-------------6---(4x)-----4-xxxxx--------6-xxxxx----|
A--4(4x)-----4-------------2-xxxxx--------4-xxxxx------|
E--2----------------------------------------------------|

e-------------------------------------------------|
B-------------------------------------------------|
G------------------------------4-------------6 ~--|
D---4--------------2----------4---(5x)-----6 ~----|
A---4---(5x)------2-(5x)----2-------------4 ~-----|
E---2--------------0------------------------------|

Play Intro and Verse 1, 2 Again

Solo
e--------------------------------|
B--------------------------------|
G------10--------------11--------|   (4x)
D-------x---(2x)-------x---(8x)--|
A-------8---------------9--------|
E--------------------------------|

e------------------------------------------|
B------------------------------------------|
G-8~---------6~---------4~---------6~----6-|
D-8~---------6~---------4~---------6~----6-|
A-6~---------4~---------2~---------4~----4-|
E------------------------------------------|

Play Intro and Verse 1, 2 Again
Related for Doing Time tab