Song name
# A B C D E F G H I J K L M N O P Q R S T U V W X Y Z

My Chemical Romance - Dischanted tab

Disenchanted - My Chemical Romance
----------------------------------------------------------------------------

Tabbed by: Claudio M
Email: claudio_gfm@sapo.pt
Tuning: Standard


e|----------------------------------------------------|
B|---3-----3-----3------------------------------------|
G|------2-----2-----2--0-----0-----0-----0--2--0------|
D|---0--------------------4-----4-----4-----------4---|
A|---------------------------5------------------------|
E|----------------------------------------------------|

e|----------------------------------------------------|
B|---3-----3-----3------------------------------------|
G|------2-----2-----2--0-----0-----0-----0--2--0------|
D|------------------------4-----4-----4-----------4---|
A|---2-----------------------2------------------------|
E|----------------------------------------------------|

e|----------------------------------------------------|
B|---3-----3-----3------------------------------------|
G|------2-----2-----2--0-----0-----0-----0--2--0------|
D|------------------------4-----4-----4-----------4---|
A|----------------------------------------------------|
E|---3-----------------------3------------------------|

e|----------------------------------------------------|
B|---3-----3-----3------------------------------------|
G|------2-----2-----2--0-----0-----0-----0--2--0------|
D|------------------------4-----4-----4-----------4---|
A|---0-----------------------0------------------------|
E|----------------------------------------------------|


it's basicaly this but reapeted lots of times...hope you injoy it!!
plz rate and/or comment|||
Tap to rate this tab
 
# A B C D E F G H I J K L M N O P Q R S T U V W X Y Z