Song name
# A B C D E F G H I J K L M N O P Q R S T U V W X Y Z

My Chemical Romance - Thank You For The Venom tab

-------------------------------------------------------------------------------
			     THANK YOU FOR THE VENOM - My Chemical Romance
-------------------------------------------------------------------------------
Tabbed by: Bullet9Times
Email: Bullet9Times@yahoo.com

Tuning: Standard
 
 Guitar 1: 0:00-0:19                  INTRO                    
e|---------------------------------------------------------------------------|   
B|---------------------------------------------------------------------------|
G|---------------------------------------------------------------------------|
D|--4---------------------0h2---------------------------2--4--5-----2--0--4--|
A|--2---4--5--2--4----------------0--5--4--2--1------------------------------|
E|------------------2--3-------3-----------------2--0-0--0--0---0-0--0--0----|
        .  .  .  .  .  .       .  .  .  .  .  .  .  . .  .  .   . .  .  .
e|---------------------------------------------------------|-----------------|
B|---------------------------------------------------------|-----------------|
G|------------------------0h2------------------------------|-----------------|
D|--4----------------------------5---4---2p0------2--0--4--|-----------------|
A|--2---4--5--2--4-----------------------------------------|------5---4---*2-|
E|------------------2--3-------0---0---0------0-0--0--0----|--0-0---0---0----|
        .  .  .  .  .  .       .   .   .      . .  .  .       . .   .   .
                                                              2nd Time Around
  Guitar 2: 0:00-0:19
e|---------------------------------------------------------------------------|
B|---------------------------------------------------------------------------|
G|---------------------------------------------------------------------------|
D|--4------------------------------------------------------------------------|
A|--2-----------------------------------------------2-2---------4-4---4-4----|
E|--------------------------------------------------0-0---------2-2---2-2----|

e|---------------------------------------------------------------------------|
B|---------------------------------------------------------------------------|
G|---------------------------------------------------------------------------|
D|--4------------------------------------------------------------------------|
A|--2-----------------------------------------------2-2---------4-4---4-4----|
E|--------------------------------------------------0-0---------2-2---2-2----|

e|---------------------------------------------------------------------------|
B|---------------------------------------------------------------------------|
G|--7-------------------------------6---------------7---------9-----11-------|
D|--9(x12)--------------------------9(x4)-----------9(x8)-----9(x4)-9-(x4)---|
A|---------------------------------------------------------------------------|
E|---------------------------------------------------------------------------|

e|---------------------------------------------------------------------------|
B|---------------------------------------------------------------------------|
G|--7-------------------------------6------------12------11------7------6----|
D|--9(x12)--------------------------9(x4)--------9-(x4)--9-(x4)--9(x4)--9(x4)|
A|---------------------------------------------------------------------------|
E|---------------------------------------------------------------------------|
                               PREVERSE
  Guitar 2: 0:19-0:22 
e|---------------------------------------------------------------------------|
B|---------------------------------------------------------------------------|
G|--7------------------------------------------------------------------------|
D|--9(x32)-------------------------------------------------------------------|
A|---------------------------------------------------------------------------|
E|---------------------------------------------------------------------------|
    .    
                               VERSE ONE                  
  Guitar 1&2: 0:23-0:55
e|---------------------------------------------------------------------------|
B|---------------------------------------------------------------------------|
G|------------------------------------7-7-7-7-7-7-9-6-6-6-6-6-6-6-6----------|
D|------------------------------------x-x-x-x-x-x-x-x-x-x-x-x-x-x-x----------|
A|--\4-4-4-4-4-4-5---4-4-4-4-4-4-2----5-5-5-5-5-5-7-4-4-4-4-4-4-4-4----------|
E|--\2-2-2-2-2-2-3---2-2-2-2-2-2-0-------------------------------------------| 

e|---------------------------------------------------------------------------|
B|---------------------------------------------------------------------------|
G|-----------------9-9-9-9-11111111------------------14-14-12-12-11-11-12-12-|
D|--4-4--4-4-4--4--x-x-x-x-x-x-x-x----4-4--4-4-4--4--x--x--x--x--x--x--x--x--|
A|--2-2--2-2-2--2--7-7-7-7-9-9-9-9----2-2--2-2-2--2--12-12-10-10-9--9--10-10-|
E|---------------------------------------------------------------------------|

e|---------------------------------------------------------------------------|
B|---------------------------------------------------------------------------|
G|-----------------------------------7-7-7-7-7-7-9-6-6-6-6-6-6-6-6-----------|
D|-----------------------------------x-x-x-x-x-x-x-x-x-x-x-x-x-x-x-----------|
A|--4-4-4-4-4-4-5---4-4-4-4-4-4-2----5-5-5-5-5-5-7-4-4-4-4-4-4-4-4-----------|
E|--2-2-2-2-2-2-3---2-2-2-2-2-2-0--------------------------------------------|

e|---------------------------------------------------------------------------|
B|---------------------------------------------------------------------------|
G|---------------------------------------------------------------------------|
D|--4-4-4-4-4-4-4-4-4-4-7-2----------4-4-4-4-4-4-4-4-4-4-7-9-----------------|
A|--2-2-2-2-2-2-2-2-2-2-5-0----------2-2-2-2-2-2-2-2-2-2-5-7-----------------|
E|---------------------------------------------------------------------------|

e|---------------------------------------------------------------------------|
B|---------------------------------------------------------------------------|
G|-----------------------------------7-7-7-7-7-7-9-6-6-6-6-6-6-6-6-----------|
D|-----------------------------------x-x-x-x-x-x-x-x-x-x-x-x-x-x-x-----------|
A|--4-4-4-4-4-4-5---4-4-4-4-4-4-2----5-5-5-5-5-5-7-4-4-4-4-4-4-4-4-----------|
E|--2-2-2-2-2-2-3---2-2-2-2-2-2-0--------------------------------------------|

e|---------------------------------------------------------------------------|
B|---------------------------------------------------------------------------|
G|-----------------9-9-9-9-11111111------------------14-14-12-12-11-11-12-12-|
D|--4-4--4-4-4--4--x-x-x-x-x-x-x-x----4-4--4-4-4--4--x--x--x--x--x--x--x--x--|
A|--2-2--2-2-2--2--7-7-7-7-9-9-9-9----2-2--2-2-2--2--12-12-10-10-9--9--10-10-|
E|---------------------------------------------------------------------------|

e|---------------------------------------------------------------------------|
B|---------------------------------------------------------------------------|
G|-----------------------------------7-7-7-7-7-7-9-6-6-6-6-6-6-6-6-----------|
D|-----------------------------------x-x-x-x-x-x-x-x-x-x-x-x-x-x-x-----------|
A|--4-4-4-4-4-4-5---4-4-4-4-4-4-2----5-5-5-5-5-5-7-4-4-4-4-4-4-4-4-----------|
E|--2-2-2-2-2-2-3---2-2-2-2-2-2-0--------------------------------------------|
                   
                              PRECHORUS
  Guitar 1&2: 0:56-1:04
e|---------------------------------------------------------------------------|
B|---------------------------------------------------------------------------|
G|---------------------------------------------------------------------------|
D|---------------------------------------------------------------------------|
A|--5-5-5-5-5-5-5-5-7-7-7-7-9-9-9-9-9-9-9-9-9-9-9-9-1111111112-12-12-12------|
E|--3-3-3-3-3-3-3-3-5-5-5-5-7-7-7-7-6-6-6-6-6-6-6-6-9-9-9-9-10-10-10-10------|

e|---------------------------------------------------------------------------|
B|---------------------------------------------------------------------------|
G|---------------------------------------------------------------------------|
D|---------------------------------------------------------------------------|
A|--5-5-5-5-5-5-5-5-5-5-5-5-5-5-5-5-7-7-7-7-7-7-7-7-7-7-7-7-111112-12--------|
E|--3-3-3-3-3-3-3-3-3-3-3-3-3-3-3-3-5-5-5-5-5-5-5-5-5-5-5-5-9-9-10-10--------|

                                 CHORUS
  Guitar 1: 1:05-1:24
e|---------------------------------------------------------------------------|
B|---------------------------------------------------------------------------|
G|---------------------------------------------------------------------------|
D|-12-------------11-------------9-------------5-----------------------------|
A|-x--------------x--------------x-------------x-----------------------------|
E|-10(x16)--------9-(x16)--------7(x16)--------3(x16)--------Twice-----------|

  Guitar 2: 1:05-1:24
e|---------------------------------------------------------------------------|
B|---------------------------------------------------------------------------|
G|--7-------------7--------------4-------------------------------------------|
D|--7-------------7--------------4-------------5-----------------------------|
A|--5(x16)--------4(x16)---------2(x16)--------5-----------------------------|
E|---------------------------------------------3(x16)--------Twice-----------|
 
                             VERSE TWO
  Guitar 1&2: 1:24-1:43
e|---------------------------------------------------------------------------|
B|---------------------------------------------------------------------------|
G|---------------------------------------------------------------------------|
D|--4-4-4-4-4-4-4-4-4-4-7-2--------4-4-4-4-4-4-4-4-4-4-7-9-------------------|
A|--2-2-2-2-2-2-2-2-2-2-5-0--------2-2-2-2-2-2-2-2-2-2-5-7-------------------|
E|---------------------------------------------------------------------------|
    . . . . . . . . . .            . . . . . . . . . . 
e|---------------------------------------------------------------------------|
B|---------------------------------------------------------------------------|
G|-----------------------------------7-7-7-7-7-7-9-6-6-6-6-6-6-6-6-----------|
D|-----------------------------------x-x-x-x-x-x-x-x-x-x-x-x-x-x-x-----------|
A|--4-4-4-4-4-4-5---4-4-4-4-4-4-2----5-5-5-5-5-5-7-4-4-4-4-4-4-4-4-----------|
E|--2-2-2-2-2-2-3---2-2-2-2-2-2-0--------------------------------------------|

e|---------------------------------------------------------------------------|
B|---------------------------------------------------------------------------|
G|-----------------9-9-9-9-11111111------------------14-14-12-12-11-11-12-12-|
D|--4-4--4-4-4--4--x-x-x-x-x-x-x-x----4-4--4-4-4--4--x--x--x--x--x--x--x--x--|
A|--2-2--2-2-2--2--7-7-7-7-9-9-9-9----2-2--2-2-2--2--12-12-10-10-9--9--10-10-|
E|---------------------------------------------------------------------------|

e|---------------------------------------------------------------------------|
B|---------------------------------------------------------------------------|
G|-----------------------------------7-7-7-7-7-7-9-6-6-6-6-6-6-6-6-----------|
D|-----------------------------------x-x-x-x-x-x-x-x-x-x-x-x-x-x-x-----------|
A|--4-4-4-4-4-4-5---4-4-4-4-4-4-2----5-5-5-5-5-5-7-4-4-4-4-4-4-4-4-----------|
E|--2-2-2-2-2-2-3---2-2-2-2-2-2-0--------------------------------------------|

                                PRECHORUS
  Guitar 1&2: 1:43-1:52
e|---------------------------------------------------------------------------|
B|---------------------------------------------------------------------------|
G|---------------------------------------------------------------------------|
D|---------------------------------------------------------------------------|
A|--5-5-5-5-5-5-5-5-7-7-7-7-9-9-9-9-9-9-9-9-9-9-9-9-1111111112-12-12-12------|
E|--3-3-3-3-3-3-3-3-5-5-5-5-7-7-7-7-6-6-6-6-6-6-6-6-9-9-9-9-10-10-10-10------|

e|---------------------------------------------------------------------------|
B|---------------------------------------------------------------------------|
G|---------------------------------------------------------------------------|
D|---------------------------------------------------------------------------|
A|--5-5-5-5-5-5-5-5-5-5-5-5-5-5-5-5-7-7-7-7-7-7-7-7-7-7-7-7-111112-12--------|
E|--3-3-3-3-3-3-3-3-3-3-3-3-3-3-3-3-5-5-5-5-5-5-5-5-5-5-5-5-9-9-10-10--------|

                                 CHORUS
  Guitar 1: 1:05-1:24
e|---------------------------------------------------------------------------|
B|---------------------------------------------------------------------------|
G|---------------------------------------------------------------------------|
D|-12-------------11-------------9-------------5-----------------------------|
A|-x--------------x--------------x-------------x-----------------------------|
E|-10(x16)--------9-(x16)--------7(x16)--------3(x16)--------Twice-----------|

  Guitar 2: 1:05-1:24
e|---------------------------------------------------------------------------|
B|---------------------------------------------------------------------------|
G|--7-------------7--------------4-------------------------------------------|
D|--7-------------7--------------4-------------5-----------------------------|
A|--5(x16)--------4(x16)---------2(x16)--------5-----------------------------|
E|---------------------------------------------3(x16)--------Twice-----------|
E|---------------------------------------------------------------------------|

                              PREPRESOLO                                 
  Guitar 1: 2:11-2:13
e|---------------------------------------------------------------------------|
B|---------------------------------------------------------------------------|
G|---------------------------------------------------------------------------|
D|--------0h4---0h4---0h4---0h4---0h4----------------------------------------|
A|------2-----2-----2-----2-----2--------------------------------------------|
E|---------------------------------------------------------------------------|

  Guitar 2: 2:11-2:13
e|---------------------------------------------------------------------------|
B|---------------------------------------------------------------------------|
G|---------------------------------------------------------------------------|
D|--4------------------------------------------------------------------------|
A|--2-------------------------------------\\\\\\\\---------------------------|
E|-----------------------------------------\\\\\\\\--------------------------|

                              PRESOLO
  Guitar 1: 2:13-2:29                                
e|---------------------------------------------------------------------------|
B|---------------------------------------------------------------------------|
G|--4(x16)-/7-/7(x8)-6(x8)-7766-/6(x16)-7(x6)-9(x10)-77776666----------------|
D|---------------------------------------------------------------------------|
A|---------------------------------------------------------------------------|
E|---------------------------------------------------------------------------|

e|---------------------------------------------------------------------------|
B|---------------------------------------------------------------------------|
G|--11(x8)-7(x4)-4(x8)-/11-11(x8)-12-9(x8)-/9-9(x8)-11(x4)-12~---------------|
D|---------------------------------------------------------------------------|
A|---------------------------------------------------------------------------|
E|---------------------------------------------------------------------------|

  Guitar 2: 2:13-2:29
e|---------------------------------------------------------------------------|
B|---------------------------------------------------------------------------|
G|---------------------------------------------------------------------------|
D|---------------------------------------------------------------------------|
A|--4------------------5------------------5-------------------4--------------|
E|--2(x16)-------------3(x16)-------------1(x16)--------------2(x16)---------|

e|---------------------------------------------------------------------------|
B|---------------------------------------------------------------------------|
G|---------------------------------------------------------------------------|
D|---------------------------------------------------------------------------|
A|--4------------------5------------------5----------------------------------|
E|--2(x16)-------------3(x16)-------------1(x16)-----------------------------|

                                 SOLO
  Guitar 1: 2:30- 2:41
e|--------------------------------------------------12--14--15--17--19~---17-|
B|--------------------------12--14--15--12--14--15---------------------------|
G|--11--12--14--11--12--14---------------------------------------------------|
D|---------------------------------------------------------------------------|
A|---------------------------------------------------------------------------|
E|---------------------------------------------------------------------------|
    .   .   .   .   .   .
e|--15--14--15--14--12--14-14~----14--15--14--12--14--12----------19--15--14-|
B|--------------------------------------------------------15--14-------------|
G|---------------------------------------------------------------------------|
D|---------------------------------------------------------------------------|
A|---------------------------------------------------------------------------|
E|---------------------------------------------------------------------------|

e|--15--14--12---------------------------------------------------------------|
B|--------------15--14----15-14-12-14-12----12-------------------------------|
G|---------------------------------------14----14-12-14-12-11-12-11----11----|
D|------------------------------------------------------------------14----14-|
A|---------------------------------------------------------------------------|
E|---------------------------------------------------------------------------|

e|---------------------------------------------------------------------------|
B|---------------------------------------------------------------------------|
G|---------------------------------------------------------------------------|
D|--12-14-12-11-12-11----11--------------------------------------------------|
A|--------------------14----14-12-14-12-10-12-10----10-----------------------|
E|-----------------------------------------------14----14-12-14-12-10///-\---|

  Guitar 2: 2:30-2:41
e|---------------------------------------------------------------------------|
B|---------------------------------------------------------------------------|
G|---------------------------------------------------------------------------|
D|--------------------------4------------------------------------------------|
A|--4-----------------------2(x8)------------------------------5-------------|
E|--2(x8)------------------------------------------------------3(x16)--------|

e|---------------------------------------------------------------------------|
B|---------------------------------------------------------------------------|
G|---------------------------------------------------------------------------|
D|---------------------------------------------------------------------------|
A|-----2----------------------4------------------------2---------------------|
E|-----0(x16)-----------------2(x16)-------------------0(x16)----------------|
                              .                        .
                               PRECHORUS
  Guitar 1: 2:42-3:01
e|---------------------------------------------------------------------------|
B|---------------------------------------------------------------------------|
G|---------------------------------------------------------------------------|
D|--(CLEAN)------------------------------------------------------------------|
A|--5-5-5-5-5-5-5-5-7-7-7-7-9-9-9-9-9-9-9-9-9-9-9-9-1111111112-12-12-12------|
E|--3-3-3-3-3-3-3-3-5-5-5-5-7-7-7-7-6-6-6-6-6-6-6-6-9-9-9-9-10-10-10-10------|
  
e|---------------------------------------------------------------------------|
B|---------------------------------------------------------------------------|
G|---------------------------------------------------------------------------|
D|----------------------------------(DISTORTION)-----------------------------|
A|--5-5-5-5-5-5-5-5-7-7-7-7-9-9-9-9-9-9-9-9-9-9-9-9-1111111112---12----------|
E|--3-3-3-3-3-3-3-3-5-5-5-5-7-7-7-7-6-6-6-6-6-6-6-6-9-9-9-9-10---10----------|
                                    . . . . . . . . . . . .
e|---------------------------------------------------------------------------|
B|---------------------------------------------------------------------------|
G|---------------------------------------------------------------------------|
D|---------------------------------------------------------------------------|
A|--5-5-5-5-5-5-5-5-7-7-7-7-9-9-9-9-9-9-9-9-9-9-9-9-1111111112-12-12-12------|
E|--3-3-3-3-3-3-3-3-5-5-5-5-7-7-7-7-6-6-6-6-6-6-6-6-9-9-9-9-10-10-10-10------|

e|---------------------------------------------------------------------------|
B|---------------------------------------------------------------------------|
G|---------------------------------------------------------------------------|
D|---------------------------------------------------------------------------|
A|--5-5-5-5-5-5-5-5-5-5-5-5-5-5-5-5-7-7-7-7-7-7-7-7-7-7-7-7-111112-12--------|
E|--3-3-3-3-3-3-3-3-3-3-3-3-3-3-3-3-5-5-5-5-5-5-5-5-5-5-5-5-9-9-10-10--------|

                                CHORUS
  Guitar 1: 3:01-3:38
e|---------------------------------------------------------------------------|
B|---------------------------------------------------------------------------|
G|---------------------------------------------------------------------------|
D|-12-------------11-------------9-------------5-----------------------------|
A|-x--------------x--------------x-------------x-----------------------------|
E|-10(x16)--------9-(x16)--------7(x16)--------3(x16)--------Twice-----------|

e|---------------------------------------------------------------------------|
B|---------------------------------------------------------------------------|
G|---------------------------------------------------------------------------|
D|-12-------------11-------------9-------------5-----------------------------|
A|-x--------------x--------------x-------------x-----------------------------|
E|-10(x16)--------9-(x16)--------7(x16)--------3(x16)--------Twice-----------|

  Guitar 2: 3:01-3:38
e|---------------------------------------------------------------------------|
B|---------------------------------------------------------------------------|
G|--7-------------7--------------4-------------------------------------------|
D|--7-------------7--------------4-------------5-----------------------------|
A|--5(x16)--------4(x16)---------2(x16)--------5-----------------------------|
E|---------------------------------------------3(x16)--------Twice-----------|
E|---------------------------------------------------------------------------|

e|---------------------------------------------------------------------------|
B|---------------------------------------------------------------------------|
G|--7-------------7--------------4-------------------------------------------|
D|--7-------------7--------------4-------------5-----------------------------|
A|--5(x16)--------4(x16)---------2(x16)--------5-----------------------------|
E|---------------------------------------------3(x16)--------Twice-----------|
E|---------------------------------------------------------------------------|

                                 OUTRO
  Guitar 1: 3:38-3:41
e|---------------------------------------------------------------------------|   
B|---------------------------------------------------------------------------|
G|----------------------------------------------------4----------------------|
D|--4---------------------0h2-------------------------4----------------------|
A|--2---4--5--2--4----------------0--5--4--2--1-------2----------------------|
E|------------------2--3-------3-----------------2---------------------------|
        .  .  .  .  .  .       .  .  .  .  .  .  .


My first tab enjoy!
Tap to rate this tab
# A B C D E F G H I J K L M N O P Q R S T U V W X Y Z