My Chemical Romance - Teenagers tab

Ok I've seen many a post of Teenagers on here, and I don't think that they're bad -- 
they just don't cover the entirety of the song very well.  So here's what I play, in hopes 
that it is a better alternative.  Honestly,
this is an amalgamation of listening to it over and over and watching it done on video.

Teenagers - My Chemical Romance
Tuning: EADGBe
Tabbed by: Messenger1513

Any questions or comments? Leave me a message on the forum or in the comments below.

_________________________________________________________________

VERSE (GUIT. 1 and 2) (**GUIT. 1 repeats verse w/o PM for CHORUS)


GUIT. 1
e|-------------0--|-----------------------------------------------|
B|-------------0--|-----------------------------------------------|
G|----------------|--x2-------------------------------------------|
D|----------------|------then-------------------------------------|
A|--22-4-2-42-----|------------22-4-2-5-2-4-2---99-11-9-9----9----|
E|--00-0-0-00-----|------------00-0-0-0-0-0-0---77-7--7-7-h11-----|

    ** * * **                  ** * * * * * *   ** *  * *    *


(*Only play these two notes the first time around -- after that continue the pattern w/o)
e|-------------------------------------------------------------0*|
B|-------------------------------------------------------------0*|
G|---------------------------------------------------------------|
D|---------------------------------------------------------------|
A|-77-9-7-7----7---22-4-x-2-4----99-11-9-12-9-11---22-4-2-x-24---|
E|-55-5-5-5-h9-----00-0-x-0-0----77-7--7-7--7-7----00-0-0-x-00---|

   ** * * *   *   ** *   * *    ** *  * *  * *    ** * *   * *

NOTE: Guitar two doesn't come in until after Guitar one has played a full round of the 
above.  From there it comes in every verse. NOTE: Palm mute this the first time around, 
after that be bold and showy with each note!!

GUIT. 2
e|---------------------------------------------------------------|
B|---------------------------------------------------------------|
G|---------------------------------------------------------------|
D|---------------------------------6666-44-6-4-----7777-6-4------|
A|--77-6-7--x---77-6-7--x---77-6----------------x----------------|
E|----------x-----------x-----------------------x----------------|

e|---------------------------------------------------------------|
B|---------------------------------------------------------------|
G|---------------------------------------------------------------|
D|--44-6---------------44-4h6(p4)--------------------------------|
A|----------7-77--6667-------------7~~---------------------------|
E|---------------------------------------------------------------|

Once you play those guys there's a brief pre-chorus riff that I've noticed isn't on any 
other tabs.



PRE-CHORUS:



GUIT. 2 (Only because 2 seems to have the treble, but it can be either)
e|---------3-p2p0------------------------------------------------|
B|---------------------------------------------------------------|
G|---0h2h3-------------------------------------------------------|
D|---------------------------------------------------------------|
A|---------------------------------------------------------------|
E|---------------------------------------------------------------|

CHORUS:

GUITAR ONE - repeats the verse, this time unmuted.  There may be small variations in the 
chords used (as in how they're muted or played), though I don't think it's noticeable, 
especially with a nice guitar two part like this:

GUIT. 2
e|---------------------------------------------------------------|
B|---------------------------------------------------------------|
G|-99-8-9-----------99-8-9----------999/13---13-13-13--11-11-----|
D|-xx-x-x-----------xx-x-x----------xxx-x----x--x--x---x--x------|
A|-77-6-7--------6--77-6-7-------6--777/11---11-11-11--9--9------|
E|---------7--9------------7--9----------------------------------|

e|---------------------------------------------------------------|
B|---------------------------------------------------------------|
G|-/13--11-11-9--11---14-14-14-14--14/13--11-11-11/13\9-99-------|
D|--x---x--x--x--x----x--x--x--x---x--x---x--x--x--x--x-xx-------|
A|-/11--9--9--7--9----12-12-12-12--12/11--9--9--9-/11\7-77-------|
E|---------------------------------------------------------------|


e|---------------------------------------------------------------|
B|---------------------------------------------------------------|
G|--8889-11-11/13-9~~--------------------------------------------|
D|--xxxx-x--x--x--x----------------------------------------------|
A|--6667-9--9/-11-7~~--------------------------------------------|
E|---------------------------------------------------------------|

Repeat the verses, pre-choruses, and the choruses, then before the solo

PRE-SOLO:

GUIT. 1:
e|---------------------------------------------------------------|
B|---------------------------------------------------------------|
G|---------------------------------------------------------------|
D|---------------------------------------------------------------|
A|---------------------------------------------------------------|
E|-0--2--4-------------------------------------------------------|


SOLO:

GUIT. 2
e|--5-----------5---------5--7-----------12-------------12-------|
B|--5-----------5---------5--7-----------12-------------12-------|
G|----7b9r7b9r7---7~~-5-7------9p7----7-----14-12-13-14----------|
D|---------------------------------h9----------------------------|
A|---------------------------------------------------------------|
E|---------------------------------------------------------------|

e|---------------------------------------------------------------|
B|-15b17r15b17r15-15--12-15-12----12-----------------------------|
G|-----------------------------14----14-12-14-12-13--------------|
D|--------------------------------------------------14~~---------|
A|---------------------------------------------------------------|
E|---------------------------------------------------------------|

e|--5-------5--5~------------7-----------------------------------|
B|--5-------5--5~------------7--7-----7-----7-----7----7----7----|
G|----7-5-6-------7-5-6-7-------9b11--9b11--9b11--9b11-9b11-9b11-|
D|------------------------7--------------------------------------|
A|---------------------------------------------------------------|
E|---------------------------------------------------------------|

e|---------------------------------------------------------------|
B|-7----7----7----7-7--------------------------------------------|
G|-9b11-9b11-9b11-9-9b11-9~~~~----(9)----(9)---/1----------------|
D|---------------------------------------------------------------|
A|---------------------------------------------------------------|
E|---------------------------------------------------------------|


From there just repeat both guitars' choruses to end.  There will be two rounds of 
chorus.  It'll be cool if you intensify the last one to the very end, which goes like this.

OUTRO:


GUIT. 2
e|-----3-----2---(0)---------------------------------------------|
B|---0---------0--0----------------------------------------------|
G|-3-----3-2------1----------------------------------------------|
D|---------------------------------------------------------------|
A|---------------------------------------------------------------|
E|---------------------------------------------------------------|

GUIT. 1
e|---------------------------------------------------------------|
B|---------------------------------------------------------------|
G|---------------------------------------------------------------|
D|----------------2----------------------------------------------|
A|----------------2----------------------------------------------|
E|----------------0----------------------------------------------|




Structure:

Verse x2 (GUIT. 2 comes in on the second round)
Pre-Chorus x1
Chorus x1 (Both guitars play their respective parts)
Verse x1
Pre-Chorus x1
Chorus x1
Solo x 1
Chorus x2
Outro x1


KEY:

| /  slide up
| \  slide down
| h  hammer-on
| p  pull-off
| ~  vibrato
| +  harmonic
| x  Mute note
| *  Palm-mute
Tap to rate this tab
 
# A B C D E F G H I J K L M N O P Q R S T U V W X Y Z