Song name
# A B C D E F G H I J K L M N O P Q R S T U V W X Y Z

My Darkest Days - Save Yourself tab

Band:   My Darkest Days
Song:   Save Yourself
Album:  Sick and twisted Affair
Tuning: Drop C


Piano Intro/Verse
Play these chords over the intro
-----------------------------|
-----------------------------|
-3---6-------8---------------|
-3---6---4---8---------------|
-1---4---4---6---------------|
---------4-------------------|

Heavy part(0:07-0:15)
--------------------------------|
--------------------------------|
----------------------------6~--|
-8888-8888-8888-888888--4~--6~--| X2
-8888-8888-8888-888888--4~--4~--|
-8888-8888-8888-888888--4~------|


Verse(0:16-0:30) "Same as intro"
-----------------------------|
-----------------------------|
-3---6-------8---------------|
-3---6---4---8---------------| X2
-1---4---4---6---------------|
---------4-------------------|

Verse(Distorted) (0:31-0:42)
------------------------------------------------------------------------|
----------------------------------------------------------------7~------|
--------------------------------------------------8888-8888-88--8~------|
-8888-8888-88-11111111-11111111-1111-4444-4444-44-8888-8888-88--8~------|They are "11's" not 1's
-8888-8888-88-11111111-11111111-1111-4444-4444-44-6666-6666-66--6~------|
-8888-8888-88-11111111-11111111-1111-4444-4444-44-----------------------|


Chorus(0:43-0:58)
--------------------------------------|
--------------------------------------|
-------------------6666-6~------------|
-8888-8~--4444-4~--6666-6~-6666-6~----| x2
-8888-8~--4444-4~--4444-4~-6666-6~----|
-8888-8~--4444-4~----------6666-6~----|


Repeat Heavy Part
Repeat Verse
Repeat Verse(Distorted)
Repeat Chorus
Repeat Heavy Part
Repeat Intro/Verse
Repeat Chorus
Repeat Heavy Part
Tap to rate this tab
# A B C D E F G H I J K L M N O P Q R S T U V W X Y Z