Song name
# A B C D E F G H I J K L M N O P Q R S T U V W X Y Z

Mymp - Ill Never Get Over You Getting Over Me tab

Chorus to :)

e|----0--2-3----3------3-3-2--|
b|--3--------3----1-----------|
g|----------------------------|
D|----------------------------|
A|----------------------------|
E|----------------------------|

e|----0--2-3-3--5--5-5-7-8-7--5----|
b|--3------------------------------|
g|---------------------------------|
D|---------------------------------|
A|---------------------------------|
E|---------------------------------|

e|----0-2-3----3-----3-3-2--3-------|
b|--3-------3-----1-----------------|
g|----------------------------------|
D|----------------------------------|
A|----------------------------------|
E|----------------------------------|
Tap to rate this tab
# A B C D E F G H I J K L M N O P Q R S T U V W X Y Z