Guitaretab - guitar tabs
Song name
# A B C D E F G H I J K L M N O P Q R S T U V W X Y Z

Mymp - Magical Feeling tab

here goes...
   Bb B      Bb  B       Ab A      Ab A
e]--------------------]---------------------]
B]--------------------]---------------------]
G]--------------------]---------------------]
D]-8~9-9--9--8~9-9--9-]--6~7-7--7--6~7-7--7-]
A]-8~9-9--9--8~9-9--9-]--6~7-7--7--6~7-7--7-]
E]-6~7-7--7--6~7-7--7-]--4~5-5--5--4~5-5--5-]
 "I was in a car crash...."
this would make up the whole bit of the verse...

refrain:
   C#m                   Ebm
e]--4-----------------]---6------------------]
B]--5-----------------]---7------------------]
G]--6-----------------]---8------------------]
D]--6-----------------]---8------------------]
A]--4-----------------]---6------------------]
E]--------------------]----------------------]
"looked straight to my     eyes..."
"told me all these         lies..."
"I should've seen it comin' I didn't thought it happen..."

GUITAR 2:
e]--------------------]----------------------]
B]-----5--------------]------7---------------]
G]-1~6----------------]--3~8-----------------](2x)
D]--------------------]----------------------]
A]--------------------]----------------------]
E]--------------------]----------------------]

    E             F#
e]-------------]-------------------------]
B]-------------]-------------------------]
G]-9-9-9-9-9-9-]--11-11-11-11-11-11-11-11](BREAK)
D]-9-9-9-9-9-9-]--11-11-11-11-11-11-11-11]
A]-7-7-7-7-7-7-]---9--9--9--9--9--9--9--9]
E]-------------]-------------------------]
"That one day you'd be leaving me happy"

CHORUS:
-----------------------------------------]  CHORDS Bb~B-Eb~E-Bb~B-Eb~E-Eb-E-C#m(BREAK) F#m
e]------------------]--------------------]
B]----15^15^13--13--]--15^`17-^15--15----]
G]------------15----]------------17------]
D]------------------]--------------------]
A]------------------]--------------------]
E]------------------]--------------------]

GUITAR TWO ON SECOND VERSE...

"HEAVY RAINS PUORED ON ME..."
e]-----------------------------9---7-]
B]--------------------------5~7-9~7--]
G]-----------------------------------]
D]-----------------------------------]
A]-----------------------------------]
E]-----------------------------------]

"LIGHTNING STRUCK AND HIT ME.."
e]--------------------------------]
B]-----------------------------9^-]
G]--------------------------------]
D]--------------------------------]
A]--------------------------------]
E]--------------------------------]
[ Tab from: http://www.guitaretab.com/m/mymp/60012.html ]
"SPAT TWICE SLAPED THRICE"     "FELT SO REAL"
e]----------------------------]-----------------9---7-]
B]------------------------9^9-]--------------7~9-9~7--]
G]----------------------------]-----------------------]
D]----------------------------]-----------------------]
A]----------------------------]-----------------------]
E]----------------------------]-----------------------]

REFRAIN
CHORUS

BRIDGE:C#m-Ebm-C#m-Ebm-E-F#m(BREAK)

"LIFE HAS BEEN EASIER WITH OUT YOU..." "WE SHOULD'VE..."
e]------------------------------------]---------------------------------]
B]---5-7-9-12-5-7-9-12-12-5-7-9-12-12-]---------------------------------]
G]------------------------------------]-11-11-11-11-11-11-11-11-11-11~0-]
D]------------------------------------]---------------------------------]
A]------------------------------------]---------------------------------]
E]------------------------------------]---------------------------------]

CHORUS(2x)

SOLO:
e]-----------------------------]-------------------------]
B]-----------------------------]-------------------------]
G]-----------------------------]-------------------------]
D]--------------------------13-]--15^-15^-15^15--14--15^-]
A]--14p13/////////////////14---]---------------15--15----]
E]-----------------------------]-------------------------]

e]------------------------------------------------12----------------]
B]-----------------------------------------12-12-14^^14-12h14-12-12-]
G]-14^14^-14^14-12-14^14-12-14^14-12--12h14-------------------------]
D]------------------------------------------------------------------]
A]------------------------------------------------------------------]
E]------------------------------------------------------------------]

e]--------------16~18-16-14-13-------------------]
B]-14^-16^16-------------------15-12----12-12-12-]
G]-----------------------------------15----------]
D]-----------------------------------------------]
A]-----------------------------------------------]
E]-----------------------------------------------]

e]-------13-13-13-13-13-----------------------------------------------16~8~16-]
B]-12--15^^^^^^^^^^^^^^15--16p15p13h15-16p15p13h15-16p15p13h15-16p15p13-------]
G]----------------------------------------------------------------------------]
D]----------------------------------------------------------------------------]
A]----------------------------------------------------------------------------]
E]----------------------------------------------------------------------------]

try to listen to it to get the timing...

LEGEND:
p=pull off
h=hammer on
~=slide
^=bend
///=fast picking


I didn't include most of the tabs of the basic chords 'coz I assume you would know... I 
the chord patern atleast...^_^

And that's it...
I just use a jazzclean effect on my guitar for the solo and fill ins...


for any comments or violent reactions 'bout somthing I did wrong...
e-mail me at
orville_basas@yahoo.com
Related for Magical Feeling tab
Advertisement will be closed in 10 seconds