Song name
# A B C D E F G H I J K L M N O P Q R S T U V W X Y Z

Nausea - Godless tab

-------------------------------------------------------------------------------
			     Godless - Nausea
-------------------------------------------------------------------------------
Tabbed by:Matt(or on this site im known as eroticsock, but i can't login now for some
weird reason)

Email:juzcheknmail@aol.com

Tuning:Whole step down

intro(after bass intro) and chorus
d|-------------------------------------------------------------|
A|-------------------------------------------------------------|
F|-------------------------------------------------------------|
C|----9----9-8-7-----------------------------------------------|
G|----7----7-6-5-----------------------------------------------|
D|-------------------------------------------------------------|

Verse
d|------------------------------------------------------|
A|------------------------------------------------------|
F|------------------------------------------------------|
C|---8-8-8-8-8-8-8-8-8-11-8-8-9-8-8-8-8-8-8-8-8-8-------|
G|---6-6-6-6-6-6-6-6-6-9--6-6-7-6-6-6-6-6-6-6-6-6-------|
D|------------------------------------------------------|

That be it
Tap to rate this tab
# A B C D E F G H I J K L M N O P Q R S T U V W X Y Z