Navel - Is It You tab

This is a great song of the swiss grunge-band Navel(whose singer Jari looks very similar 
young Kurt Cobain). Be sure to choose a very dirty sound in chorus:-)

intro(light distorted/crunchy)
e--------------------------------|
b--------------------------------|
g--------------------------------|
d-2-22-22-222-22-22-22~-255-7-5--|
a-2-22-22-222-22-22-22~-255-7-5--|
E-0-00-00-000-00-00-00~-033-5-3--|
  I------palm mute---------------|I

verse:(light distorted/crunchy)
e-----------------|
b-----------------|
g-----------------|
d-2-22-22-255-7-5-| 3x
a-2-22-22-255-7-5-|
E-0-00-00-033-5-3-|

bridge1:
e-----------------------------|
b-----------------------------|
g-----------------------------|
d-7-77-77-77770-5-55-55-55550-|
a-7-77-77-77770-5-55-55-55550-|
E-5-55-55-55500-3-33-33-33300-|

verse-riff 4x

bridge2:
e--------------------------------|
b--------------------------------|
g--------------------------------|
d-7-77-77-77770-5-55-55----------|
a-7-77-77-77770-5-55-55----------|
E-5-55-55-55500-3-33-33-0-3/17\0-|

chorus:(heavy distorted)
e-----------------|
b-----------------|
g-----------------|
d-2-22-22-255-7-5-| 4x
a-2-22-22-255-7-5-|
E-0-00-00-033-5-3-|

verse-riff 3x

bridge 2

chorus

chorus with solo
e------------------------------------------|
b------------------------------------------|
g-/7---------------/7----------------------|
d------------------------------------------|  4x
a----10p9h10-9/10-----10-9-10-9/10-9h10p9--|
E------------------------------------------|
listen carefully to the timing

post-chorus
e----------------------------------------|
b----------------------------------------|
g----------------------------------------|
d-7-77-7-77-78888888--5-55-5-55-54444444-|
a-7-77-7-77-78888888--5-55-5-55-54444444-|
E-5-55-5-55-56666666--3-33-3-33-32222222-|

e----------------------------------------------------|
b----------------------------------------------------|
g----------------------------------------------------|
d-7-77-7-77-78888888--5-55-5-55-5-----------------2~-|
a-7-77-7-77-78888888--5-55-5-55-5-7b8pp-7b8pp-r7--2~-|
E-5-55-5-55-56666666--3-33-3-33-3-----------------0~-|
                                     p stands for a picked bended note
                                     r stands for release bend

intro thing, start while the post-chorus rings out
e----------------        e-------|
b----------------        b-------|
g----------------        g-------|
d-2-22-22-222-22- 13x    d-22-22-|
a-2-22-22-222-22-        a-22-22-|
E-0-00-00-000-00-        E-00-00-|

chorus

Let e-powerchord ring while the last words are spoken, try to get squealing feedback.
Tap to rate this tab
 
# A B C D E F G H I J K L M N O P Q R S T U V W X Y Z