Song name
# A B C D E F G H I J K L M N O P Q R S T U V W X Y Z

Naxxerian - Rain tab

This song is in Standard Tuning, enjoy :)


INTRO (Acoustic Finger Picked):

-2---0-2--0---------------------------0------|
--3---------1---0-1--0-----1---------1-1-----|
---2---------0------------3---3-----0---0----|
-0---0-0--0---2----------3-----3---2-----2---| X2
------------3---3-3--3--1-------1-3-------3--|
---------------------------------------------|


INTRO 2/VERSE/CHORUS 1 (Acoustic Chord Strumming):

-2-  ---  ---|
-3-  -1-  -2-|
-2-  -0-  -3-|
-0-  -2-  -3-| Just Strum These Chords In The Style Of The Song
---  -3-  -1-|
---  ---  ---|
 D    C

CHORUS 2 (Electric Power Chords):

-----------------------------------------------------------|
-----------------------------------------------------------|
-7--7--7-7-7----5--5--5-5-5----3--3--3-3-3----5--5--5-5-5--|
-7--7--7-7-7----5--5--5-5-5----3--3--3-3-3----5--5--5-5-5--|
-5--5--5-5-5----3--3--3-3-3----1--1--1-1-1----3--3--3-3-3--|
-----------------------------------------------------------|

THATS THE SONG!!!
Tap to rate this tab
# A B C D E F G H I J K L M N O P Q R S T U V W X Y Z