Guitaretab - guitar tabs
Song name
# A B C D E F G H I J K L M N O P Q R S T U V W X Y Z

Nazareth - Please Dont Judas Me tab

Nazareth - Please Don't Judas Me - (Hair of the dog 1975)

E A D G B E

Interlude/solo only!

|-----------------------------------------------------------------|
|-----------------------------------------------------------------|
|---/15----13----11----------------16-15-16-15--------------------|
|----------------------15----13----------------16-15-16-15--------|
|-----------------------------------------------------------------|
|-----------------------------------------------------------------|

[ Tab from: http://www.guitaretab.com/n/nazareth/97609.html ]
|-----------------------------------------------------------------|
|----------------------14-----------------------------------------|
|-------------------15---------------13---------------------------|
|---13--15--16---16---------------15----13~~~~--------------------|
|-------------------------16---16---------------------------------|
|-----------------------------------------------------------------|

This is the solo/interlude part at ~ 4min 35 sec
I'm not a big tab writer so just take it as a guide.
Listen to the song and work out time, FX, slides and whatever.

Filby.
Related for Please Dont Judas Me tab
Advertisement will be closed in 10 seconds