Song name
# A B C D E F G H I J K L M N O P Q R S T U V W X Y Z

Ne-yo - So Sick Acoustic tab

My arrangement of Ne-yo - So Sick

Standard Tuning (E A D G B e)

 Verse
  Q=90
                   $
                   D#m7    Bmaj7       G#7sus4 C#sus4
 4/4
       Gtr I
  H    E S S E E   E S E S E +H        E S E S E +Q    E E
|----------------|-------------------|---------------------|
|----------------|-7-------2-(2)-----|---------------------|
|----------------|-6-6-6---3-----x---|---------6-----------|
|--------4-4-4-6-|-8---x-8-4-----x---|-4-6-8-4-6-(6)-x-4-6-|
|----------------|-6---x---2-----x---|-6---x---4-----x-----|
|----------------|-------------------|-4---x---------------|
                   Q   Q   Q     Q     Q   Q   Q     Q


  E S E   S E +H        E S E   S E +Q   E E
|---------------------|----------------------|
|-7-------------------|----------------------|
|-6-6-6---8-6-(6)-----|------------------6-8-|
|-8-----x------4---x--|-4-6-8---4-6-(6)--x---|
|-6-----x------2---x--|-6-----x------4---x---|
|---------------------|-4-----x--------------|
  Q     Q      Q   Q    Q     Q      Q   Q


   E S E   S H      +S  S   E S E   S E  Q   +S  S S S
|-------------------------|----------------------------|
|-^6h7p6------------------|----------------------------|
|----------6-3-3----(3)---|--------------6-------------|
|-^8-----x-----4--x-----4-|-4-6-8-x-4-6-(6)--(6)-4-4-4-|
|-^6-----x-----2--x-------|-6-----x------4----x--------|
|-------------------------|-4-----x--------------------|
   Q     Q     Q  Q         Q     Q      Q    Q


  E S E   E E   E Q   S   S H      +E  S E E
|-----------------------|--------------------|
|-----------------------|----------------4-6-|
|-3-3-3-x-4-3-3-3-3-x---|-4---x--3-----3-----|
|-4-----x-----4-----x-6-|-4-4-x--4-(4)---x---|
|-2-----x-----2-----x---|-2---x--2-------x---|
|-----------------------|--------------------|
  Q     Q     Q     Q     Q   Q  Q       Q


 Chorus
  Q=90
  Gtr I
  E. E.   E E. E.     +E    E. E.   E E. S E E
|-------------------------|--------------------|
|-7--6------2-------------|----------------4-6-|
|-6-----x-6-3-------------|-6---------6--3-6---|
|-8-----x------4--(x)-(4)-|-4--6----8-6----x---|
|-6-----x---2------x------|-6-----x---4----x---|
|-------------------------|-4-----x------------|
  Q     Q   Q      Q        Q     Q   Q    Q


  E. E.   E E. E.     +E    E. E.   E E. S E E
|-------------------------|--------------------|
|-7--6------2-------------|----------------4-6-|
|-------6-6-3-------------|-6---------6--3-6---|
|-------8------4--(x)-(4)-|-4--6----8-6----6---|
|-6-----6---2------x------|-------6---4----4---|
|-------------------------|-4-----4------------|
  Q     Q   Q      Q        Q     Q   Q    Q


  E. E.   E E. E.     +E    E. E.   E Q..    S
|-------------------------|--------------------|
|-7--6------2-------------|--------------------|
|-------x-6-3-------------|-6---------6------1-|
|-------x------4--(x)-(4)-|-4--6----8-6--------|
|-6-----x---2------x------|-------x---4----x---|
|-------------------------|-4-----x------------|
  Q     Q   Q      Q        Q     Q   Q    Q


                             D.S. al Fine
  E E E S E.   E S S E    H      E S S E E
|----------------------|-------------------*|
|-2-2-2----------------|--2----------------*|
|-3-----3-4----3-------|--3----------------*|
|-4---x------4---6-4-4-|-(4)--x----4-4-4-6-*|
|-2---x------2---x-----|--2---x------------*|
|----------------------|-------------------*|
  Q   Q      Q   Q        Q   Q


Duration Legend
---------------
W - whole; H - half; Q - quarter; E - 8th; S - 16th; T - 32nd; X - 64th; a - acciaccatura
+ - note tied to previous; . - note dotted; .. - note double dotted
Uncapitalized letters represent notes that are staccato (1/2 duration)
Irregular groupings are notated above the duration line
Duration letters will always appear directly above the note/fret number it represents the
duration for.  Duration letters with no fret number below them represent rests.  Multi-
bar rests are notated in the form Wxn, where n is the number of bars to rest for.  Low
melody durations appear below the staff

Tablature Legend
----------------
 h   - hammer-on
 p   - pull-off
 b   - bend
 pb  - pre-bend
 r   - bend release (if no number after the r, then release immediately)
 /\  - slide into or out of (from/to "nowhere")
 s   - legato slide
 S   - shift slide
  - natural harmonic
[n]  - artificial harmonic
n(n) - tapped harmonic
 ~   - vibrato
 tr  - trill
 T   - tap
 TP  - trem. picking
 PM  - palm muting
\n/  - tremolo bar dip; n = amount to dip
 \n  - tremolo bar down
 n/  - tremolo bar up
/n\  - tremolo bar inverted dip
 =   - hold bend; also acts as connecting device for hammers/pulls
 <>  - volume swell (louder/softer)
 x   - on rhythm slash represents muted slash
 o   - on rhythm slash represents single note slash

Misc Legend
-----------
 |  - bar
||  - double bar
||o - repeat start
o|| - repeat end
*|  - double bar (ending)
 :  - bar (freetime)
 $  - Segno
 &  - Coda
Tempo markers -  = BPM(8/16=s8/s16), where s8 = swing 8ths, s16 = swing 16ths
Tap to rate this tab
 
# A B C D E F G H I J K L M N O P Q R S T U V W X Y Z