Song name
# A B C D E F G H I J K L M N O P Q R S T U V W X Y Z

Neal Schon - Send Me An Angel tab

Help us improve GuitareTab! Take a short survey!
intro
e|--------------------------|
b|--------------------------|
g|--------------------------|
d|00-0--00-0--00-0-00--00-0-|
a|00-0--00-0--00-0-00--00-0-|
d|00-0--00-0--00-0-00--00-0-|

e|------------------------------------------------------------------------|
b|------------------------------------------------------------------------|
g|------------------------------------------------------------------------|
d|000000000000-7777-000000000000-7777-101010101010101010-5555555555555555-|
a|000000000000-7777-000000000000-7777-101010101010101010-5555555555555555-|
d|000000000000-7777-000000000000-7777-101010101010101010-5555555555555555-|

e|---------------------|
b|---------------------|
g|---------------------|
d|---------------------|
a|---------------------|
d|000000000000000000000
  .....................

verse1
E|------------------------|
B|------------------------|
G|------------------------|
D|------------------------| X4
A|0000000000000--3h0-3h0--|
D|0000000000000--3h0-3h0--|
  .............
E|---------------------------------------------------------------|
B|---------------------------------------------------------------|
G|---------------------------------------------------------------|
D|55555555555-77777777777--0h4-000--0h4-000-555555555-7777777-00-|
A|55555555555-77777777777--0h4-000--0h4-000-555555555-7777777-00-|
D|55555555555-77777777777--0h4-000--0h4-000-555555555-7777777-00-|
                               ...      ...                   ..
chorus
E|----------------------------------------------------------|
B|----------------------------------------------------------|
G|----------------------------------------------------------|
D|000000000000000000-77/1010101010101010-77/1010101010101010
A|000000000000000000-77/1010101010101010-77/1010101010101010
D|000000000000000000-77/1010101010101010-77/1010101010101010

E|---------------------------------------------------|
B|---------------------------------------------------|
G|---------------------------------------------------|
D|333333333333333333-55/888888880-55/88888880--22222-|
A|333333333333333333-55/888888880-55/88888880--22222-|
D|333333333333333333-55/888888880-55/88888880--22222-|

verse 2

E|----------------------------------------------------------|
B|----------------------------------------------------------|
G|----------------------------------------------------------|
D|----------------------------------------------------------|
A|0-----------3h0-----------3h0-----------3h0-----------3h0-|
D|0-----------3h0-----------3h0-----------3h0-----------3h0-|

E|------------------------|
B|------------------------|
G|------------------------|
D|------------------------| X4
A|0000000000000--3h0-3h0--|
D|0000000000000--3h0-3h0--|
  .............
E|---------------------------------------------------------------|
B|---------------------------------------------------------------|
G|---------------------------------------------------------------|
D|55555555555-77777777777--0h4-000--0h4-000-555555555-7777777-00-|
A|55555555555-77777777777--0h4-000--0h4-000-555555555-7777777-00-|
D|55555555555-77777777777--0h4-000--0h4-000-555555555-7777777-00-|
                               ...      ...                   ..
outro
E|-----------------------------------|
B|-----------------------------------|
G|-----------------------------------|
D|-----------------------------------|
A|0-2h-34540--0-2h-34540--0-2h-34530-|
D|0-2h-34540--0-2h-34540--0-2h-34530-|
Related for Send Me An Angel tab