Song name
# A B C D E F G H I J K L M N O P Q R S T U V W X Y Z

Nelly Furtado - Say It Right tab

 Main Chords: F#m E D Bm

Here's what they look like:

  F#m     E     D    Bm

E--2------0-----2----2-------|
B--2------0-----3----3-------|
G--2------1-----2----4-------|
D--3------2-----0----4-------|
A--3------2-----0----2-------|
E--2------0------------------|

Play these chords over the whole song and listen for the
changes!


Play this fill midway through each chorus chorus and
at the end of the song. Yes thats pretty much the whole
Song! The beats do most of the work here :)I could try
 to make it more of a flashy tab but it is what it is.

E----------------------------------------------------------------|
B---10----10-----10-----9----9----9---7----7-----7---3---3-------|
G-------------11----11----9----9----9---7----7-----7---4---4-----|
D------11-------------------9----9--------7----7---------4---4---|
A----------------------------------------------------------------|
E----------------------------------------------------------------|

Live versions of this song are really cool with an extended
solo in the key of F. I wont tab those out its a trade
secret! :)

Tab advice email me at slashnelly_f87@yahoo.com
Tap to rate this tab
 
# A B C D E F G H I J K L M N O P Q R S T U V W X Y Z