Song name
# A B C D E F G H I J K L M N O P Q R S T U V W X Y Z

Nelly - Just A Dream tab

Song: Just A Dream by Nelly
Tabs by: Adrian Cabal

Got the intro part from my friend Alec. He listened to the intro in slow motion and 
the tabs so this pretty much sounds right.

(Capo 6th fret)

Intro
  Am              F           C            G
e|------0-------0|-----------|------------|---------------|
b|----1---1--0h1-|-------1---|----1-------|--0-----0--0---|
g|---2-----2-----|----0---0-0|-0-----0--0-|---0-0---0---0-|
d|--2--2-2--2----|-3---3-----|--2--2--2--2|----0-0---0-0--|
a|-0-------------|--33--3--3-|3--3--3--3--|-2-----2-------|
e|---------------|1----------|------------|3--------------|

  Am              F                C            G
e|------0------0--|---------------|---------------|---------------|
b|---1-----0h1---1|-----1-----1---|--1--1---------|--0-----0--0---|
g|----2--2----2-2-|--0-----0---0-0|---0--0-0--0---|---0-0---0---0-|
d|--2--2--2-------|---3--3--3---3-|-2--2--2-3--3-2|----0-0---0-0--|
a|-0--------------|-3--3--3--3----|3---------3--3-|-2-----2-------|
e|----------------|1--------------|---------------|3--------------|
                                               ...Uh Uh Uh I was thinkin bout

Chords:

Am                                 F
her, thinkin bout me. Thinkin bout us, what we gonna be?
         C                              G
Open my eyes, yeah; it was only just a dream...
            Am
So I travel back down that road.
               F
Will she come back? No one knows.
    C                                G
I realize, yeah, it was only just a dream.

Verse 1:
Am
I was at the top and I was like Iím at the basement.
F
Number one spot and now she found her a replacement.
C                           G
I swear now I can't take it, knowing somebody's got my baby.

Am                                       F
And now you ain't around, baby I can't think.
                                       C
Shoulda put it down. Shoulda got that ring.

Cuz I can still feel it in the air.
G
See her pretty face run my fingers through her hair.

   Am                  F
My lover, my life. My shorty, my wife.
     C
She left me, I'm tied.
       G
Cuz I knew that it just ain't right.
      (Uh, Uh, Uh.....)

Chorus:
                    Am
I was thinkin about her, thinkin about me
              F
Thinkin about us, what we gonna be?
         C                              G
Open my eyes, yeah, it was only just a dream...
            Am
So I travel back down that road.
               F
Will she come back? No one knows.
    C                                G
I realize, yeah, it was only just a dream.

Verse 2:
Am
When I be ridin man I swear I see her face at every turn.
F
Tryin to get my usher over, I can let it burn.
C                                                    G
And I just hope she notice she the only one I yearn for.

Oh I miss her when will I learn?

Am
Didn't give her all my love, I guess now I got my payback.
F
Now I'm in the club thinkin all about my baby.
C                                 G
Hey, she was so easy to love. But wait, I guess that love wasn't enough

Am
I'm goin through it every time that I'm alone.
F
And now i'm missin, wishin she'd pick up the phone.
C
But she made a decision that she wanted to move one.
G
Cuz I was wrong.
(Uh, Uh, Uh...)

Chorus:
                    Am
I was thinkin about her, thinkin about me
              F
Thinkin about us, what we gonna be?
         C                              G
Open my eyes, yeah, it was only just a dream...
            Am
So I travel back down that road.
               F
Will she come back? No one knows.
    C                                G
I realize, yeah, it was only just a dream

       Am
If you ever loved somebody put your hands up.
       F
If you ever loved somebody put your hands up.
                C                                          G
And now they're gone and you wish you could give them everything.
               Am
I said, if you ever loved somebody put your hands up.
       F
If you ever loved somebody put your hands up.
                C                                          G
And now they're gone and you wish you could give them everything.
                                                    (Uh, Uh, Uh...)

Chorus: play twice
                    Am
I was thinkin about her, thinkin about me
              F
Thinkin about us, what we gonna be?
         C                              G
Open my eyes, yeah, it was only just a dream...
            Am
So I travel back down that road.
               F
Will she come back? No one knows.
    C                                G
I realize, yeah, it was only just a dream.

Outro:

  Am              F           C            G
e|------0-------0|-----------|------------|---------------|
b|----1---1--0h1-|-------1---|----1-------|--0-----0--0---|
g|---2-----2-----|----0---0-0|-0-----0--0-|---0-0---0---0-|
d|--2--2-2--2----|-3---3-----|--2--2--2--2|----0-0---0-0--|
a|-0-------------|--33--3--3-|3--3--3--3--|-2-----2-------|
e|---------------|1----------|------------|3--------------|

  Am              F                C            G
e|------0------0--|---------------|---------------|---------------|
b|---1-----0h1---1|-----1-----1---|--1--1---------|--0-----0--0---|
g|----2--2----2-2-|--0-----0---0-0|---0--0-0--0---|---0-0---0---0-|
d|--2--2--2-------|---3--3--3---3-|-2--2--2-3--3-2|----0-0---0-0--|
a|-0--------------|-3--3--3--3----|3---------3--3-|-2-----2-------|
e|----------------|1--------------|---------------|3--------------|


Enjoy the tabs =)
Tap to rate this tab
 
# A B C D E F G H I J K L M N O P Q R S T U V W X Y Z