Song name
# A B C D E F G H I J K L M N O P Q R S T U V W X Y Z

Nephew - Ordenspoliti tab

Song - Ordenspoliti
Band - Nephew
Album - USA DSB
Tabbed by Angel Fires


Intro Riff

e------------------|------------------|
B-10-10-10-12------|-10-12-7----------|
G------------------|------------------|
D------------------|------------------|
A------------------|------------------|
E------------------|------------------|

e-2-----------------------------------|
B-3-----------------------------------|
G-4-----------------------------------|
D-4-----------------------------------|
A-2-----------------------------------|
E-------------------------------------|

Chorus Riff

e---------------|
B---------------|
G---------------|
D---0----4------|
A-2----2----0---|
E---------------|
Tap to rate this tab
# A B C D E F G H I J K L M N O P Q R S T U V W X Y Z