Nero - Me And You tab

This is how i play it, its not 100%
but hey its my first tab

e|-----------------------------------------------------------------------------|
B|-8-8-8--8-88-8-8-8-8-8-8888--------------------------------------------------|
G|-----------------------------------------------------------------------------|
D|-----------------------------------------------------------------------------|
A|-----------------------------------------------------------------------------|
E|-----------------------------------------------------------------------------|

e|-8-7--10-------------------------------------------------------------------|
B|---------8-----------------------------------------------------------------|
G|---------------------------------------------------------------------------|
D|---------------------------------------------------------------------------|
A|---------------------------------------------------------------------------|
E|---------------------------------------------------------------------------|

e|-3-3-3-3-3-3-3-3-3-3-3-3-3-3-3-3-5-5-5-5-5-5-5-5-5-5-5-5-5-5-5-5-------------|
B|-3-3-3-3-3-3-3-3-3-3-3-3-3-3-3-3-3-3-3-3-3-3-3-3-3-3-3-3-3-3-3-3-------------|
G|-0-0-0-0-0-0-0-0-0-0-0-0-0-0-0-0-0-0-0-0-0-0-0-0-0-0-0-0-0-0-0-0-------------|
D|-0-0-0-0-0-0-0-0-0-0-0-0-0-0-0-0-0-0-0-0-0-0-0-0-0-0-0-0-0-0-0-0-------------|
A|-----------------------------------------------------------------------------|
E|-----------------------------------------------------------------------------|

e|-----8-7-------10----------------------------------------------------------|
B|------------------8---8-10-11---10-8---------------------------------------|
G|---------------------------------------------------------------------------|
D|-5---------5---------------------------------------------------------------|
A|-5---------5---------------------------------------------------------------|
E|-3---------3---------------------------------------------------------------|

e|------------------------------------------------------------------------------|
B|------------------------------------------------------------------------------|
G|--------------------5-----8---------------------------------------------------|
D|-5--------5---------5-x8--8-x8------------------------------------------------|
A|-5---3-2--5--5------3-----6---------------------------------------------------|
E|-3--------3----3--------------------------------------------------------------|

http://www.facebook.com/nerouk?v=app_178091127385
Tap to rate this tab
 
# A B C D E F G H I J K L M N O P Q R S T U V W X Y Z