Song name
# A B C D E F G H I J K L M N O P Q R S T U V W X Y Z

Network - Teenagers From Mars tab

hey guys. wow i see that the intro of this song is wrong so lets go for the whole song. hope you like it.

Guitar 1- Slightly Distorted
Guitar 2- Slightly Distorted
Overdub- Clean

Intro

Guitar 1
e|----x-|
B|---x--| figure out how many times to do this yourself
G|--x---|
D|--x---|
A|-x----|
E|-x----|

Verse

Guitars 1 & 2
e|-------------------|
B|-------------------|
G|-------------------|
D|-4-4-444-5-555-222-|
A|-4-4-444-5-555-222-|
E|-2-2-222-3-333-000-|

Pre-Chorus

Guitars 1 & 2
e|----------------|
B|----------------|
G|-5-5555---------|
D|-5-5555-5-55555-|
A|-3-3333-5-55555-|
E|--------3-33333-|

Chorus

Guitar 1
e|---------------|
B|---------------|
G|-------8-88888-|
D|-88888-8-88888-|
A|-88888-6-66666-|
E|-66666---------|

Guitar 2
e|-6-6-----6-6--|
B|--6-6---4-4-4-|
G|--------------|

After Chorus

Guitar 1 
e|---------------|
B|---------------|
G|-------8888888-|
D|-77777-8888888-|
A|-77777-6666666-|
E|-55555---------|

Guitar 2
e|-5~~~~---------|
B|-------4~~~~~~-|
G|---------------|

Overdub
e|---------------|
B|---------------|
G|---------------|
D|---------------| this is a harmonic
A|+5+~~~~--------|
E|---------------|

Last After Chorus

Guitar 1
e|---------------|
B|---------------|
G|---------------|
D|-66666-8888888-|
A|-66666-8888888-|
E|-44444-6666666-|

Guitar 2

e|---------------|
B|---------------|
G|-5-5-----7--7--|
D|--6-6---8-88---|
A|---------------|
E|---------------|

End

Guitar 1

e|--------|
B|--------|
G|--------|
D|-6----8-|
A|-6----8-|
E|-4----6-|

Guitar 2

e|--------|
B|--------|
G|--------|
D|-6~~~/8-|
A|--------|
E|--------|

Order
Intro 
Verse x6
Pre-Chorus x4
Chorus x3
After Chorus x2
Verse x6
Pre-Chorus x4
Chorus x3
After Chorus x2
Verse x6
Pre-Chorus x4
Chorus x3
After Chorus x2
Chorus x3
Last After Chorus x6
End

Tap to rate this tab
 
# A B C D E F G H I J K L M N O P Q R S T U V W X Y Z