Song name
# A B C D E F G H I J K L M N O P Q R S T U V W X Y Z

Network - Spike tab

----------------------------------------------------------------------------
			  "Spike" - The Network
----------------------------------------------------------------------------
Tabbed by: Kidd Lincoln
Email: kidd_lincoln@yahoo.com

Tuning: Standard Tuning E A D G B E

Verse:
e|----------------------------------------------------------------------|
B|----------------------------------------------------------------------|
G|-9-9------------------4-4-4-4-4-4-4-4-----------------3-3-3-3-3-3-3-3-|
D|-9-9--2-2-2-2-2-2-2-2-4-4-4-4-4-4-4-4-5-5-5-5-5-5-5-5-3-3-3-3-3-3-3-3-|
A|-7-7--2-2-2-2-2-2-2-2-2-2-2-2-2-2-2-2-5-5-5-5-5-5-5-5-1-1-1-1-1-1-1-1-|
E|------0-0-0-0-0-0-0-0-----------------3-3-3-3-3-3-3-3-----------------|

Chorus:
e|----------------------------------------------------------------------|
B|----------------------------------------------------------------------|
G|-9-9-9----------------------------------------------------------------| 4x
D|-9-9-9-9--9-9--9-9-9-9--9-9-------------------------------------------|
A|-7-7-7-9--9-9--9-9-9-9--9-9-------------------------------------------|
E|-------7--7-7--7-7-7-7--7-7-------------------------------------------|

Bridge: Guitar 1
e|----------------------------------------------------------------------|
B|----------------------------------------------------------------------|
G|----------------------------------------------------------------------| 8x
D|-8--8--8-8-8-2--2-2--2-2-2-2------------------------------------------|
A|-8--8--8-8-8-2--2-2--2-2-2-2------------------------------------------|
E|-6--6--6-6-6-0--0-0--0-0-0-0------------------------------------------|

Guitar 2 
e|----------------------------------------------------------------------|
B|-13~~~~~~~5~~~~~~~13~~~~~~~5~~~~~~~13~~~~~~~5~~~~~~~13~~~~~~~5~~~~~~~-|
G|-x--------x-------x--------x-------x--------x-------x--------x--------|
D|-8~~~~~~~~2~~~~~~~8~~~~~~~~2~~~~~~~8~~~~~~~~2~~~~~~~8~~~~~~~~2~~~~~~~-|
A|----------------------------------------------------------------------|
E|----------------------------------------------------------------------|

============================================================================
| /  slide up
| \  slide down
| h  hammer-on
| p  pull-off
| ~  vibrato
| +  harmonic
| x  Mute note
============================================================================
Tap to rate this tab
 
# A B C D E F G H I J K L M N O P Q R S T U V W X Y Z