Song name
# A B C D E F G H I J K L M N O P Q R S T U V W X Y Z

Nevermore - What Tomorrow Knows tab

      Q     H          E   E      E   E   E   E  Q    Q      
E||---------------------------|-----------------------------|
B||--10----10~--------10--10--|--10--10--10--10--9----9~----|
G||---7-----7~---------7---7--|---7---7---7---7--7----------|
D||---------------------------|-----------------------------|
A||---------------------------|-----------------------------|
E||---------------------------|-----------------------------|


       \1                                                
  Q    H        Q        E   E   E   E   E   E   E   E   
---------------------|--13--13--13--13--12--10--13--13--|
--L------------------|--10--10--10--10--10--10--10--10--|
---------------------|----------------------------------|
-------7--------L----|----------------------------------|
---------------------|----------------------------------|
---------------------|----------------------------------|


   E   E   E   E   H             H          E   E   E   E   
--13--13--12--10-------------|--10---------13--13--13--13--|
--10--10--10--10--11~--------|--11~--------11--11--11--11--|
-----------------------------|-----------------------------|
-----------------------------|-----------------------------|
-----------------------------|-----------------------------|
-----------------------------|-----------------------------|


   E   E   H          Q        Q     E   E   E   E   E   E   
--12--10-------------10~----|--L----13--13--13--13--12--10--|
--11--11--10~--------10~----|--L----10--10--10--10--10--10--|
----------------------------|-------------------------------|
----------------------------|-------------------------------|
----------------------------|-------------------------------|
----------------------------|-------------------------------|

                           odd whammy dips here
                           \1/  \1/\1/  \1/ \1/\1/  \1/    
   H          H            E    E  E    E   E  E    E  E   
-------------10---------|---------------------------------|
--11~--------11~--------|--9---10--9----------------------|
------------------------|--------------12--10--9---10--7--|
------------------------|---------------------------------|
------------------------|---------------------------------|
------------------------|---------------------------------|


        \1/                                                                 
  Q     H        Q          S  S  S  S  S  S  S  S  S  S  S  S  S  S  S  S  
-----------------------|---------------------------------------------------|
-------10--------L~----|---------------------------------------------------|
--L--------------------|------------10----------12-13-12-10-12-10----------|
-----------------------|--/12-10-12----12-10-12----------------------10----|
-----------------------|------------------------------------------12----12-|
-----------------------|---------------------------------------------------|


   Q      S  S  S S  Q    S S S S    S S S S S S S S S S S S S S  S S   
----------------------------------|-----------------------------------||
----------------------------------|-----------------------------------||
----------------------------------|-----------------------------------||
--10~----10-12-10-7~-L----7-5-6-5-|--3-5-3---3-5-6-5-3-5-3------------||
----------------------------------|--------5---------------5-3-5~-L-L-||
----------------------------------|-----------------------------------||




Duration Legend
---------------
W - whole
H - half
Q - quarter
E - 8th
S - 16th
T - 32nd
X - 64th
. - note dotted
|-n-|  - n-tuplets


Tablature Legend
----------------
L - tied note
x - dead note
g - grace note
(n) - ghost note
> - accentuded note
NH - natural harmonic
AH - artificial harmonic
TH - tapped harmonic
SH - semi harmonic
PH - pitch harmonic
h - hammer on
p - pull off
b - bend
br - bendRelease
pb - preBend
pbr - preBendRelease
brb - bendReleaseBend
\n/ - tremolo bar dip
\n - tremolo bar dive
-/n - tremolo bar Release up
/n\ - tremolo bar inverted dip
/n - tremolo bar return
-\n - tremolo bar Release down
S - shift slide
s - legato slide
/ -  slide into from below or out of upwards
\ -  slide into from above or out of downwards
~ - vibrato
W - wide vibrato
tr - trill
TP - tremolo picking
T - tapping
S - slap
P - pop
< - fade in
^ - brush up
v - brush down
Tap to rate this tab
# A B C D E F G H I J K L M N O P Q R S T U V W X Y Z