Song name
# A B C D E F G H I J K L M N O P Q R S T U V W X Y Z

New Found Glory - All About Her tab

Band- New Found Glory
Song- All About Her
Tabbed By- Trevor

Chorus/Intro
e|-----------------------------------------------------------------------------| 
B|-----------------------------------------------------------------------------|
G|----------------------4-4---4--------6-6---6---------------------------------|
D|----2-2---2-----------4-4---4--------6-6---6-------------7-7---7----------2--|
A|----2-2---2-----------2-2---2--------4-4---4-------------7-7---7----------2--|
E|----0-0---0--2--4-------------2--4-------------2--4------5-5---5---4---2--0--|

Verse
e|-----------------------------------------------------------------------------|
B|-----------------------------------------------------------------------------|
G|-----------------------------------------------------------------------------|
D|---2--2-2-~~~~~2--2--2*------------------------------------------------------|  
A|---2--2-2-~~~~~2--2--2*------------------------------------------------------| 
E|---0--0-0-~~~~~0--0--0*------------------------------------------------------|

Verse- Guitar 2
e|-----------------------------------------------------------------------------|
B|-----------------------------------------------------------------------------|
G|-----------------------------------------------------------------------------|
D|--------7p6---7p6---7p6-7---7p6---7p6--9-------------------------------------|  
A|------7-----7-------------7-----7--------------------------------------------| 
E|-----------------------------------------------------------------------------|

Pre Chorus
e|-----------------------------------------------------------------------------|
B|-----------------------------------------------------------------------------|
G|---------------------------4--2-2-2-2--6--4-4-4-4-2-2-2-2--4-----------------|
D|---2--2-2-2-2--6--4-4-4-4--4--2-2-2-2--6--4-4-4-4-2-2-2-2--4-----------------|
A|---2--2-2-2-2--6--4-4-4-4--2--0-0-0-0--4--2-2-2-2-0-0-0-0--2-----------------|
E|---0--0-0-0-0--4--2-2-2-2----------------------------------------------------|

Breakdown
e|------------------------------------------------------------------------|
B|----5-4-5------5-4-5-4-5-----5-4-5-4-5-----5-4-5-4-5--------------------|
G|------------------------------------------------------------------------|
D|------------------------------------------------------------------------|
A|------------------------------------------------------------------------|
E|------------------------------------------------------------------------|
Tap to rate this tab
# A B C D E F G H I J K L M N O P Q R S T U V W X Y Z