Song name
# A B C D E F G H I J K L M N O P Q R S T U V W X Y Z

New Medicine - Laid tab

----------------------------------------------------------------------------
			     Laid - New Medicine
----------------------------------------------------------------------------
Tabbed by: bigLanky34
Email: bigLanky34@gmail.com

Tuning: Standard/Drop D (DADGBE)

Intro
e|-------------------------------------------------------|
B|-------------------------------------------------------|
G|------9-7------------9-7------------9-7-------3-3-2-2--|
D|-2-2------9-----5-5------9-----7-7------9-----3-3-2-2--|
A|-2-2------------5-5------------7-7------------5-5-4-4--|
E|-2-2------------5-5------------7-7---------------------|

Verse
e|------------------------------|
B|------------------------------|
G|------------------------------|
D|-2-2-----2-2-----2-2-----3-3--|
A|-2-2-----2-2-----2-2-----3-3--|
E|-2-2-----2-2-----2-2-----3-3--|

Pre Chorus
e|-----------|
B|-----------|
G|-----------|
D|-3-3-3-3---|
A|-3-3-3-3---|
E|-3-3-3-3---|

Chorus
e|----------------------------------------------|
B|----------------------------------------------|
G|-------------3-3-3-3-----------------7-7-7-7--|
D|-2-2-2-2-----3-3-3-3-----5-5-5-5-----7-7-7-7--|
A|-2-2-2-2-----5-5-5-5-----5-5-5-5-----5-5-5-5--|
E|-2-2-2-2-----------------5-5-5-5--------------|

Post Chorus
e|------------------------------|
B|------------------------------|
G|------------------------------|
D|-2-2-----5-5-----7-7-----3-3--|
A|-2-2-----5-5-----7-7-----3-3--|
E|-2-2-----5-5-----7-7-----3-3--|

Interlude
e|------------------------------------------------|
B|------------------------------------------------|
G|------------------------------------------------|
D|-9-9-9-9-9-9-9-9-----10-10-10-10-10-10-10-10----|
A|-9-9-9-9-9-9-9-9-----10-10-10-10-10-10-10-10----|
E|-9-9-9-9-9-9-9-9-----10-10-10-10-10-10-10-10----|

e|-----------------------------------------|
B|-----------------------------------------|
G|-----------------------------------------|
D|-5-5-5-5-5-5-5-5-----0-0-0-0-0-0-0-0-----|
A|-5-5-5-5-5-5-5-5-----0-0-0-0-0-0-0-0-----|
E|-5-5-5-5-5-5-5-5-----0-0-0-0-0-0-0-0-----|


************************************

| /   slide up
| \   slide down
| h   hammer-on
| p   pull-off
| ~   vibrato
| +   harmonic
| x   Mute note
| b   Bend
| pb  Pre-bend
| br  Bend release
| pbr Pre-bend release
| brb Bend release bend

************************************
Tap to rate this tab
 
# A B C D E F G H I J K L M N O P Q R S T U V W X Y Z