Song name
# A B C D E F G H I J K L M N O P Q R S T U V W X Y Z

New Medicine - End Of The World tab

New Medicine
"End of the World"

Standard Tuning


Intro
e|----------------------|
B|----------------------|
G|-----7-7--------------|
D|-2-2-7-7------7-7-5---|
A|-2-2-5-5-(x3)-7-7-5---|
D|-2-2----------7-7-5---|



e|----------------------------------|
B|----------------------------------|
G|----------7-7-7-------------------|
D|-2-2-xxxx-7-7-7~-------7-7--------|
A|-2-2-xxxx-5-5-5~-(x3)--7-7-55555--|
E|-2-2-------------------7-7-55555--|


Verse
e|----------------------|
B|----------------------|
G|-----7-7--------------|
D|-2-2-7-7------7-7-5---|
A|-2-2-5-5-(x3)-7-7-5---|
D|-2-2----------7-7-5---

e|---------------------------------------------|
B|---------------------------------------------|
G|---------------------------------------------|
D|-2---------------------7---7---7-5-5-5-------|
A|-2---5-5-5-5-5--(x3)---7---7---7-5-5-5-------|
D|-2---------------------7---7---7-5-5-5-------|


Pre-chorus
e|--------------------------------------|
B|--------------------------------------|
G|--------------------------------------|
D|-7-7-7-7-7-7-7-7-10-10-10-10-10-------|
A|-7-7-7-7-7-7-7-7-10-10-10-10-10-------|
D|-7-7-7-7-7-7-7-7-10-10-10-10-10-------|


Chorus
e|----------------------------------------------------------|
B|----------------------------------------------------------|
G|--------5--4-----------5--7-------------------------------|
D|-2s--7--5--4----2s--7--5--7-----[---2s--7--0~---------]---|
A|-2s--7--3--2----2s--7--3--5-----[---2s--7--0~-bracket-]---|
D|-2s--7----------2s--7-----------[---2s--7--0~-x2 times]---|
                                   ^ ^            
                                 Offbeat


e|--------------------------------------------------|
B|--------------------------------------------------|
G|--------------------------------------------------|
D|--x--x--x--x--------------------------------------|
A|--x--x--x--x--------------------------------------|
D|--x--x--x--x--------------------------------------|

Solo
e|---------------------------------------------------|
B|---------------------------------------------------|
G|--9--7--9~---9--7-6-----9--7-6---------------------|
D|--------------------7~---------7------7--7-9-5-----|
A|-----------------------------------------------7---|
D|---------------------------------------------------|


Verse
e|----------------------|
B|----------------------|
G|-----7-7--------------|
D|-2-2-7-7------7-7-5---|
A|-2-2-5-5-(x3)-7-7-5---|
D|-2-2----------7-7-5---|

e|---------------------------------------------|
B|---------------------------------------------|
G|---------------------------------------------|
D|-2---------------------7---7---7-5-5-5-------|
A|-2---5-5-5-5-5--(x3)---7---7---7-5-5-5-------|
D|-2---------------------7---7---7-5-5-5-------|


Pre-chorus
e|--------------------------------------|
B|--------------------------------------|
G|--------------------------------------|
D|-7-7-7-7-7-7-7-7-10-10-10-10-10-------|
A|-7-7-7-7-7-7-7-7-10-10-10-10-10-------|
D|-7-7-7-7-7-7-7-7-10-10-10-10-10-------|


Chorus
e|----------------------------------------------------------|
B|----------------------------------------------------------|
G|--------5--4-----------5--7-------------------------------|
D|-2s--7--5--4----2s--7--5--7-----[---2s--7--0~---------]---|
A|-2s--7--3--2----2s--7--3--5-----[---2s--7--0~-bracket-]---|
D|-2s--7----------2s--7-----------[---2s--7--0~-x2 times]---|
                                   ^ ^            
                                 Offbeat
e|--------------------------------------------------|
B|--------------------------------------------------|
G|--------------------------------------------------|
D|--x--x--x--x--------------------------------------|
A|--x--x--x--x--------------------------------------|
D|--x--x--x--x---x2---------------------------------|


e|------------------------------------------------|
B|------------------------------------------------|
G|-[----1-----1-------]---------------------------|
D|-[------0-0---0-----]----------7--------5-------|
A|-[--2-------------x3]--------7---7----5---5-----|
D|-[2-----------------]------7--------5-----------|


"Someone give me somethin' I can scream and shout"...
e|-----------------------------------------------|
B|-----------------------------------------------|
G|----------------7--------------7---7-----------|
D|----------------7--------------7---7-----------|
A|----------------5-x14----------5---5-----------|
D|-----------------------------------------------|


Chorus
e|----------------------------------------------------------|
B|----------------------------------------------------------|
G|--------5--4-----------5--7-------------------------------|
D|-2s--7--5--4----2s--7--5--7-----[---2s--7--0~---------]---|
A|-2s--7--3--2----2s--7--3--5-----[---2s--7--0~-bracket-]---|
D|-2s--7----------2s--7-----------[---2s--7--0~-x2 times]---|x2
                                   ^ ^            
                                 Offbeat


e|--------------------------------------------------|
B|--------------------------------------------------|
G|--------------------------------------------------|
D|--x--x--x--x--------------------------------------|
A|--x--x--x--x--------------------------------------|
D|--x--x--x--x---x2---------------------------------|



Solo
e|---------------------------------------------------|
B|---------------------------------------------------|
G|--9--7--9~---9--7-6-----9--7-6---------------------|
D|--------------------7~---------7------7--7-9-5-----|
A|-----------------------------------------------7---|
D|---------------------------------------------------|

e|----------------------------------------------------|
B|----------------------------------------------------|
G|--9--7--12~---9--7-6-----9--7-6---------------------|
D|---------------------7~---------7------7--7-9-5-----|
A|------------------------------------------------7---|
D|----------------------------------------------------|


e|------------------------------------------------|
B|------------------------------------------------|
G|------------------------------------------------|
D|--2~~-------------------------------------------|
A|--2~~-------------------------------------------|
D|--2~~-------------------------------------------|

Submitted by js81221
Tap to rate this tab
 
# A B C D E F G H I J K L M N O P Q R S T U V W X Y Z