Song name
# A B C D E F G H I J K L M N O P Q R S T U V W X Y Z

New York Dolls - Personality Crisis tab

                                New York Dolls

                               Personality Crises

Tabbed By Stephen Carass/Quaver


Yo, This song was from the New york dolls album: Looking For A Kiss. This is the 
song, not the crappy edited one with a piano in. This song is pretty Straight Forward, 
the same riff the whole way through with slight alterations and with fills
Enjoy


Intro:

Note:the first four bars are played on there own my guitar 1 (johnny thunders) and 
2 (Sylvain Sylvain) plays the chords above the tab.

E-----------------|-----------------|-----------------|--------|
B-----------------|-----------------|-----------------|--------|
G-----------------|-----------------|-----------------|--------|
D--5--5--7--5--7--|--7--7--9--7--9--|-----------------|--------|
A--3--3--3--3--3--|--5--5--5--5--5--|--5--5--7--5--7--|--5-----|
E-----------------|-----------------|--3--3--3--3--3--|--3-----|


Main Riff:

Guitar 1 & 2:

Note: Everyone Joins In.

     C                   D                 G


E--8-8-----8-----|---10-10-----10------|--------------|
B--8-8-----8-----|---10-10-----10------|--------------|
G------10^---10^-|---------12^----12^--|---12---------|
D----------------|---------------------|---12---------|
A----------------|---------------------|--------------|
E----------------|---------------------|--------------|

                            C            D            G

E----------------------|-----------|------------|-----------|
B----------------------|-----------|------------|-----------|
G----------10--12--10--|-----------|------------|--12-------|    X2
D----------10--12--10--|--5--------|--7---------|--12-------|
A--10--12--------------|--3--------|--5---------|-----------|
E----------------------|-----------|------------|-----------|

Verse:

Guitar 1:

                 G

E-----------------|--------------------------|
B-----------------|--------------------------|
G--12----------12-|------10-----10-------10--|
D--12----------12-|------10-----10-------10--|
A-----------------|-10h12---10h12---10h12----|
E-----------------|--------------------------|


Guitar 2:
                       G

E-----------------------|------------------------|
B-----------------------|------------------------|
G--12----------12-------|-------12-----------12--|
D--12----------12-------|-------12-----------12--|
A--10----------10-------|-------10-----------10--|
E-----------------------|------------------------|

Chorus:

Guitar 1:

        C                   D                  G

E------------------|------------------|----------------------|
B------------------|------------------|----------------------|
G------------------|------------------|----------------------|
D--5---------------|--7---------------|----------------------|
A--3---------------|--5---------------|--5-------------------|
E------------------|------------------|--3-------------------|

Guitar 2:

         C              D              G

E-----------------|--------------|--------------------------|
B-----------------|--------------|--------------------------|
G-----------------|--------------|--------------------------|
D-----5--5--5--5--|--7--7--7--7--|--------------------------|
A-----3--3--3--3--|--5--5--5--5--|--5--5--5--5--5--5--5--5--|
E-----------------|--------------|--3--3--3--3--3--3--3--3--|

Guitar 1 fills:
Note: These fills are played bout with by Johnny Thunders but these are what he bases 
little licks on in this songs.

E------------------|--------------------------------|-----------|
B------------------|--------------------------------|-----------|
G-------10-----10--|--5^-5^-5^--3-5--5^--3-3~/-\----|--5^~~~----|
D-------10-----10--|--------------------------------|-----------|
A--10h12--10h12----|--------------------------------|-----------|
E------------------|--------------------------------|-----------|

You can probably work out the order but thats it folks, please rate or correct me please

Enjoy
Tap to rate this tab
 
# A B C D E F G H I J K L M N O P Q R S T U V W X Y Z