Song name
# A B C D E F G H I J K L M N O P Q R S T U V W X Y Z

Newton Faulkner - Pulling Teeth tab

In this tab is the intro, verses and chorus. However, the bridge is unknown and
therefore left out.

Tuning: B
        E
        B
        E
        F#
        E
This tuning is very awkward, so Newton's DGDGAD tuning is also correct, just two steps
higher. However, if you choose DGDGAD then then one chord is different, as shown when you
get there.

H = Hit the guitar above the sound-hole with your wrist for a bass thump.
S = Slap the side of the guitar under the neck with your left hand.
X = Slap the string with your thumb against the fretboard.

INTRO:
                    H       H             x3 and then                H
B  |-0---0--0--0-0-----0-0-----0-0---0--0|            |0---0--0--0-0-----0-0|
E  |-2---2--2--2-4-----4-5-----5-4---9--7|            |2---2--2--2-4-----4-5|
B  |-0---0--0--0-0-----0-0-----0-0---0--0|            |0---0--0--0-0-----0-0|
E  |-2---2--2--2-4-----4-5-----5-4---9--7|            |2---2--2--2-4-----4-5|
F# |-0---0--0--0-0-----0-0-----0-0---0--0|            |0---0--0--0-0-----0-0|
E  |-0---0--0--0-0-----0-0-----0-0---0--0|            |0---0--0--0-0-----0-0|

VERSE:
                                                                 S
B  |-X-----------X-----------X-----------X-----------X------------|
E  |--------------------------------------------------------------|
B  |----0--0--0-----0--0--0-----0--0--------0--0--0-----0--0--0---|
E  |--------------------------------------------------------------|
F# |--------------------------------------------------------------|
E  |--------------------------------------------------------------|

         We   just  fight   to  a....................pologize    S
B  |-X-----------X-----------X-----------X-----------X------------|
E  |--------------------------------------------------------------|
B  |----0--0--0-----0--0--0-----0--0--------0--0--0-----0--0--0---|
E  |--------------------------------------------------------------|
F# |--------------------------------------------------------------|
E  |--------------------------------------------------------------|

         We   break  up     and then  change    our     minds    S but it's
B  |-X-----------X-----------X-----------X-----------X------------|
E  |--------------------------------------------------------------|
B  |----0--0--0-----0--0--0-----0--0--------0--0--0-----0--0--0---|
E  |--------------------------------------------------------------|
F# |--------------------------------------------------------------|
E  |--------------------------------------------------------------|

           alright                             I   don't   mind  at
B  |-5-----------5-----------5-----------5-----------5-----------5-7h|
E  |-----------------------------------------------------------------|
B  |----0--0--0-----0--0--0-----0--0--------0--0--0-----0--0--0------|
E  |-----------------------------------------------------------------|
F# |-----------------------------------------------------------------|
E  |-----------------------------------------------------------------|

     all      I   don't   mind  at     all   S
B  |-X-----------X-----------X-----------X-----------X------------|
E  |--------------------------------------------------------------|
B  |----0--0--0-----0--0--0-----0--0--------0--0--0-----0--0--0---|
E  |--------------------------------------------------------------|
F# |--------------------------------------------------------------|
E  |--------------------------------------------------------------|

PRE-CHORUS:
      it's no sin to shred your fake skin...
B  |-X-----------X-----------X-----------X-----------X------------|
E  |--------------------------------------------------------------|
B  |----X--X--X-----X--X--X-----X--X--------X--X--X-----X--X--X---|
E  |--------------------------------------------------------------|
F# |--------------------------------------------------------------|
E  |--------------------------------------------------------------|

     why don't we both just open up?                    We make it
B  |-X-----------X-----------X--------X---------------------------|
E  |--------------------------------------------------------------|
B  |----0--0--0-----0--0--0-----0--0------------------------------|
E  |--------------------------------------------------------------|
F# |--------------------------------------------------------------|
E  |--------------------------------------------------------------|




CHORUS:

     so          hard but it's so  simple      underneath if we just
B  |-7---7---7---9----9---9---9----5---5---5---0---0---0---0--| x3
E  |-0---0---0---0----0---0---0----0---0---0---11--11--11--11-|
B  |-7---7---7---9----9---9---9----5---5---5---0---0---0---0--|
E  |-6---6---6---7----7---7---7----4---4---4---11--11--11--11-|
F# |-0---0---0---0----0---0---0----0---0---0---0---0---0---0--|
E  |-0---0---0---0----0---0---0----0---0---0---0---0---0---0--|

    got it wrong instead of pushing back, I'll pull you into me
B  |-7---7---7---9----9---9---9----9---9---9---9---9---9---9---|
E  |-0---0---0---0----0---0---0----0---0---0---0---0---0---0---|
B  |-7---7---7---9----9---9---9----9---9---9---9---9---9---9---|
E  |-6---6---6---7----7---7---7----7---7---7---7---7---7---7---|
F# |-0---0---0---0----0---0---0----0---0---0---0---0---0---0---|
E  |-0---0---0---0----0---0---0----0---0---0---0---0---0---0---|

Complete the verse again, and then the bridge and one more chorus and it ends. Thank
you, it's my first.
Tap to rate this tab
# A B C D E F G H I J K L M N O P Q R S T U V W X Y Z