Guitaretab - guitar tabs
Song name
# A B C D E F G H I J K L M N O P Q R S T U V W X Y Z

Newton Faulkner - Untitled tab

-------------------------------------------------------------------------------
			     Untitled by Newton Faulkner
-------------------------------------------------------------------------------
Tabbed by: Dom
Email:mnkymetal@yahoo.ie

If you have any problems with this tab just drop me an E-mail =]

Tuning:C#F#C#F#G#C#

Intro:

|---------------------------------------------------------------------------|  \          
|--------9-------9------9-------9------9------------------------------------|   |
|------7-------7------7------7-------7--------------------------------------|   | 
|---------------------------------------------------------------------------|   |
|---------------------------------------------------------------------------|
|---0--------0------0------0--------0---------------------------------------|
                                                                                 X2
|-------11------11--------12------12------12--------------------------------|
|----12------12--------12------12------12-----------------------------------|   |
|---------------------------------------------------------------------------|   |
|---------------------------------------------------------------------------|   |
|--0--------0--------0-------0-------0--------------------------------------|   |
|---------------------------------------------------------------------------|  /

|------4------4-----------4----4---------4-----4---------4-----4------------| \
|----5------5----5------5----5----5----5-----5----5----5-----5-----5--------|  |
|---------------------------------------------------------------------------|  X2
|---------------------------------------------------------------------------|  
|--4------4-----4-----2----2----2----0-----0----0----0-----0-----0----------|  |
|---------------------------------------------------------------------------|  /

|-----------------2p0-----------|
|--Finish on------0-------------|
|-----------------0-------------|
|-----------------0-------------|
|-----------------0-------------|

Im going to take it for granted that you know this song pretty well and that if 
your trying to play you have a pretty high level of skill so Im just going to put 
down the actual tab and then you can work out how its played by watching =]

So these are all hammer-ons/pull-offs :
[ Tab from: http://www.guitaretab.com/n/newton-faulkner/190765.html ]
|-----12-11-----------------12-11----------------12-11----------------------|     \
|-----------12-9-7-5-7------------12-9-7-9-7-----------12-9-7-5-7-----------|     |
|---------------------------------------------------------------------------|     |
|--12---------------------9--------------------7----------------------------|     |
|---------------------------------------------------------------------------|     |
|--12---------------------9--------------------7----------------------------|
                                                                                   X2
|----12-11------------------------------------------------------------------|
|----------12-9-12-9-12-9-12-9-12-9---------------------------------------|     |
|---------------------------------------------------------------------------|     |
|--5------------------------------------------------------------------------|     |
|---------------------------------------------------------------------------|     |
|--5------------------------------------------------------------------------|     /


The Timing and rhythm for this part is a bitch (even Newton thinks its one of the 
hardest he wrote). So just take you time =]


|-----12-11-----------------12-11----------------12-11----------------------|     \
|-----------12-9-7-5-7------------12-9-7-9-7-----------12-9-7-5-7-----------|     |
|---------------------------------------------------------------------------|     |
|-12---------------------9---------------------7----------------------------|     |
|---------------------------------------------------------------------------|     |
|---12---he-ta-he-ta-----9---he-ta---he-ta-----7---he-ta--he-ta-----------|
                                                                                   X2
|----12-11------------------------------------------------------------------|
|----------12-9-12-9-12-9-12-9-12-9-----------------------------------------|     |
|---------------------------------------------------------------------------|     |
|--5------------------------------------------------------------------------|     |
|---------------------------------------------------------------------------|     |
|---5---he-ta---he-ta---he-ta---he-ta---------------------------------------|     /
Finish on:

|-2h4p2p0-------------------------------------------------------------------|
|---------------------------------------------------------------------------|
|---------------------------------------------------------------------------|
|---------------------------------------------------------------------------|
|---------------------------------------------------------------------------|
|---------b-0---------------------------------------------------------------|


  
| he hit above sound hole with heel of hand
| ta Tap below sound hole with middle finger
| b  Slap string with thumb
| /  slide up
| \  slide down
| h  hammer-on
| p  pull-off
| ~  vibrato
| +  harmonic
| x  Mute note
=====================================================
Related for Untitled tab