Song name
# A B C D E F G H I J K L M N O P Q R S T U V W X Y Z

Nick Jonas - Give Love A Try tab

Intro:
e-----------X|
B-----------X|
G----4--4h5-X|
D-----------X|2x
A--3----3---X|
E-----------X|     

e-----------X|
B-----------X|
G----4--4h5-X|
D-----------X|2x
A--0----0---X|
E-----------X|

e-----------X-----------X|
B-----------X-----------X|
G----5--5p4-X----2--2p0-X|
D-----------X-----------X|
A-----------X-----------X|
E--3----3---X--1----1---X|

e-----------X|
B-----------X|
G----4--4h5-X|
D-----------X|2x
A--3----3---X|
E-----------X|

Verse:

e-----------X|
B-----------X|
G----4--4h5-X|
D-----------X|2x
A--3----3---X|
E-----------X|

e-----------X|
B-----------X|
G----4--4h5-X|
D-----------X|2x
A--0----0---X|
E-----------X|

e-----------X-----------X|
B-----------X-----------X|
G----5--5p4-X----2--2p0-X|
D-----------X-----------X|
A-----------X-----------X|
E--3----3---X--1--------X|

e-----------X|
B-----------X|
G----4--4h5-X|
D-----------X|2x
A--3----3---X|
E-----------X|    (after that do the whole verse one more)

Chorus:

e-----------X------------X-----------X----------X-----------X-----------X
B----5---5--X------------X----3---3--X----------X----5---5--X-----------X
G----5---5--X------------X----3---3--X----------X----5---5--X-----------X
D-----------X----2--2----X-----------X----7--7--X-----------X----2--2---X
A--5-----5--X--3----3----X--3-----3--X--8----8--X--5-----5--X--3----3---X
E-----------X------------X-----------X----------X-----------X-----------X

e-----------X------------X-----------X----------X-----------X-----------X
B----3---3--X------------X-----------X----------X----3---3--X-----------X
G----3---3--X------------X-----------X----------X----3---3--X-----------X
D-----------X----7--7----X----6---6--X----2--2--X-----------X----7--7---X
A--3-----3--X--8----8----X--8-----8--X--3----3--X--3-----3--X--8----8---X
E-----------X------------X-----------X----------X-----------X-----------X

e------------X
B------------X
G------------X
D----6---6~--X
A--8-----8~--X
E------------X

That's the tab for the whole song and i think it's 90% accurate hehe

h = hammer
p = pull of
~ = let ring
X = palm mute
Tap to rate this tab
# A B C D E F G H I J K L M N O P Q R S T U V W X Y Z