Song name
# A B C D E F G H I J K L M N O P Q R S T U V W X Y Z

Nickelback - Money Bought tab

Money Bought/Silver side up/Nickelback

Tabbed by clarkii___:. aka Dan Clarke

tuning D,A,D.G.B.e

legend
b- bend
r- release bend
~- let ring
*- hold bend    
/-slide to
\-slide from

Inrto
1st                    2nd   
|----------------------|-----------|
|----------------------|-----------|
|----------------------|-----------| play 1st + 2nd, 1st, x2
|-0-0--0-3-3--0-0--5-5-|-5--5--5---|
|-0-0--0-3-3--0-0--5-5-|-5--5--5---|
|-0-0--0-3-3--0-0--5-5-|-5--5--5---|




Play this just as the heavy intro begins
|-------------|
|-------------|
|-------------|
|---5-6-7b----|
|-8-------7-5~|
|-------------|

Heavy intro                                          
|------------------------------------------------------------------|
|------------------------------------------------------------------|
|------------------------------------------------------------------|
|-0-0--0-3-3--0-0--5-5--5--5--5----0-0--0-3-3--0-0--5-5------------|
|-0-0--0-3-3--0-0--5-5--5--5--5----0-0--0-3-3--0-0--5-5--10b-r10---| Bend and release
|-0-0--0-3-3--0-0--5-5--5--5--5----0-0--0-3-3--0-0--5-5------------|

|------------------------------------------------------------------|
|------------------------------------------------------------------|
|------------------------------------------------------------------|
|-0-0--0-3-3--0-0--5-5--5--5--5----0-0--0-3-3--0-0--5-5---5-xxx-3p0|
|-0-0--0-3-3--0-0--5-5--5--5--5----0-0--0-3-3--0-0--5-5------------|
|-0-0--0-3-3--0-0--5-5--5--5--5----0-0--0-3-3--0-0--5-5------------|
 
Verse 1
after "Favourite trick she does, One in ten that she's got" play

1st                    2nd   
|----------------------|-----------|
|----------------------|-----------|
|----------------------|-----------| play 1st + 2nd, 1st, x2
|-0-0--0-3-3--0-0--5-5-|-5--5--5---|
|-0-0--0-3-3--0-0--5-5-|-5--5--5---|
|-0-0--0-3-3--0-0--5-5-|-5--5--5---|

Chorus
"Look what your money bought"
|------------------------------------------------------------------|
|------------------------------------------------------------------|
|------------------------------------------------------------------|
|-0-0--0-3-3--0-0--5-5--5--5--5------0-0--0-3-3--0-0--5-5----------|
|-0-0--0-3-3--0-0--5-5--5--5--5--x3--0-0--0-3-3--0-0--5-5-10b-r10--|
|-0-0--0-3-3--0-0--5-5--5--5--5------0-0--0-3-3--0-0--5-5----------|

Verse 2:
Last chance to dance, out in back of the bar
|------------------------------------------------------------------|
|-----------------------------------------3---3---3---3---3--------|
|---------------------------------------6---6---6---6---6----------|
|------------------------------------------------------------------|
|------------------------------------------------------------------|
|------------------------------------------------------------------|
Shakin' hands, nice to meet you, I don't know who you are 
|------------------------------------------------------------------|
|------------------------------------------------------------------|
|------------------------------------------------------------------|
|------------------------------------0-0--0-3-3--0-0--5-5--5-5br5-3|
|------------------------------------------------------------------|
|------------------------------------------------------------------|

Still verse 2
1st                    2nd   
|----------------------|-----------|
|----------------------|-----------|
|----------------------|-----------| play 1st + 2nd, 1st, x2
|-0-0--0-3-3--0-0--5-5-|-5--5--5---|
|-0-0--0-3-3--0-0--5-5-|-5--5--5---|
|-0-0--0-3-3--0-0--5-5-|-5--5--5---|

Chorus
"Look what your money bought"
|------------------------------------------------------------------|
|------------------------------------------------------------------| x2
|------------------------------------------------------------------|
|-0-0--0-3-3--0-0--5-5--5--5--5------0-0--0-3-3--0-0--5-5----------|
|-0-0--0-3-3--0-0--5-5--5--5--5--x3--0-0--0-3-3--0-0--5-5-10b-r10--|
|-0-0--0-3-3--0-0--5-5--5--5--5------0-0--0-3-3--0-0--5-5----------|

2nd time chorus 
Guitar 2 plays 

|--------------------------|
|--10-------10-------------| repeated until chorus is over
|-----9--7-----9---7-------|
|--------------------------|
|--------------------------|
|--------------------------|

Bridge:

|------------------------------------------------------------------|
|------------------------------------------------------------------|  guitar 1 with wah
|------------------------------------------------------------------|
|------------------------------------------------------------------|
|------------------------------------------------------------------|
|-0-0--0-3-3--0-0--5-5-------------0-0--0-3-3--0-0--5-5------------|
|               *still hold bend                                   |
|------------------------------------------------------------------|
|------------------------------------------------------------------|  guitar 2
|--------12b---------12*--------------*12-------------10--------7b-|
|-----------------------------------------------------/------------|
|-----------------------------------------------------/------------|
|-----------------------------------------------------/------------|

|------------------------------------------------------------------|
|------------------------------------------------------------------|  guitar 1 with wah
|------------------------------------------------------------------|
|------------------------------------------------------------------|
|------------------------------------------------------------------|
|-0-0--0-3-3--0-0--5-5-------------0-0--0-3-3--0-0--5-5------------|
|                                                                  |
|------------------------------------------------------------------|
|------------------------------------------------------------------|  guitar 2
|------------------------------------------------------------------|
|---------------5/6------5b1--r5--5h6p5-0--------------------------|
|------------------------------------------------------------------|
|------------------------------------------------------------------|

Same as Verse 1
Bass until "Favourite trick she does, One in ten that she's got" then play like beginin of song
1st                    2nd   
|----------------------|-----------|
|----------------------|-----------|
|----------------------|-----------| play 1st + 2nd, 1st, x2
|-0-0--0-3-3--0-0--5-5-|-5--5--5---|
|-0-0--0-3-3--0-0--5-5-|-5--5--5---|
|-0-0--0-3-3--0-0--5-5-|-5--5--5---|

Chorus
"Look what your money bought"
|------------------------------------------------------------------|
|------------------------------------------------------------------| x2
|------------------------------------------------------------------|
|-0-0--0-3-3--0-0--5-5--5--5--5------0-0--0-3-3--0-0--5-5----------|
|-0-0--0-3-3--0-0--5-5--5--5--5--x3--0-0--0-3-3--0-0--5-5-10b-r10--|
|-0-0--0-3-3--0-0--5-5--5--5--5------0-0--0-3-3--0-0--5-5----------|

2nd time chorus 
Guitar 2 plays 

|--------------------------|
|--10-------10-------------| repeated until chorus is over
|-----9--7-----9---7-------|
|--------------------------|
|--------------------------|
|--------------------------|

End

Comments welcome althoguht im sure its mostly right, pm me if you think somethings wrong ciao ^^



Tap to rate this tab
 
# A B C D E F G H I J K L M N O P Q R S T U V W X Y Z